Debbie Gibson - Lost In Your Eyes Text Guitar Tab

Learn the song with the online tablature player
this song is originaly played in piano but the tabbturer play it in the guitar....
this song is 100% sure...and we dont entertain suggestion as well as correction....
this song is nice and good to hear

just listen to the song for the correct timming...

intro
 1st
e|--12------12------12------12------13------13------13------17--15--13--|
B|--15------15------15------15------13------13------13------------------|
G|--12--12--12--12--12--12--12--12--14--14--14--14--14--14--------------|
D|----------------------------------------------------------------------|
A|----------------------------------------------------------------------|
E|----------------------------------------------------------------------|

 2nd
e|--12------12------12------12------13----------13--------10------------|
B|--15------15------15------15------13--------13--------12---12---12----|
G|--12--12--12--12--12--12--12--12--14-----14---------12-------12-------|
D|--------------------------------------15----------12------------------|
A|----------------------------------------------------------------------|
E|----------------------------------------------------------------------|

Verse
e|--12------12------12------12------13------13------13------13----------|
B|--15------15------15------15------13------13------13------13----------|
G|--12--12--12--12--12--12--12--12--14--14--14--14--14--14--14--14------|(2X)
D|----------------------------------------------------------------------|
A|----------------------------------------------------------------------|
E|----------------------------------------------------------------------|

e|--8---8---8---8--------------------------|
B|--5---5---5---5----10----10----12----12--|
G|----5---5---5---5--10----10----12----12--|
D|----------------------10----10----12-----|......repeat 2nd (intro)
A|-----------------------------------------|
E|-----------------------------------------|

Struming:

Verse
C9   F   C9   F
      Am   F   G   C   C   C#   D

Chorus
F   G   C     F  E  Am   Gm   F   G   Em   Am
        Dm   C   F   G