Decemberists - Calamity Song Text Guitar Tab

Learn song with the online tabulature player
Calamity Song by The Decemberists

Standard tuning, no capo

Verse; Repeats a bunch of times. Play along with the song to get the rhythm.

e|--------------------------------------------------------------------------|
B|--------------------------------------------------------------------------|
G|-2----2-2-4-2----2----2-------2------2----2-2-4-2----2----2-------2-------|
D|-0----0-0-0-0----0----0---2h4---2-0--0----0-0-0-0----0----0---2h4---2-0---|
A|--------------------------------------------------------------------------|
E|--------------------------------------------------------------------------|

e|--------------------------------------------------------------------------|
B|--------------------------------------------------------------------------|
G|--------------------------------------------------------------------------|
D|-2----2-2-4-2-----2-----2-------2-----2----2-2-4-2----2----2----5----4-2-0|
A|-0----0-0-0-0-----0-----0---2h4---2-0-0----0-0-0-0----0----0----0----0-0-0|
E|--------------------------------------------------------------------------|


Chorus; G D G D A G

e|-------3---------3------------3-------------------------------------------|
B|------------3---------3------------3--(3)---------------------------------|
G|--------------0---------0------------0------------------------------------|
D|-----0--------------------------------------------------------------------|
A|---2----------------------------------------------------------------------|
E|-3------------------------------------------------------------------------|

e|-------0----2------------0----2-------------------------------------------|
B|-----3----------(3)----3----------(3)-------------------------------------|
G|---2-----------------2----------------------------------------------------|
D|-0-----------------0------------------------------------------------------|
A|--------------------------------------------------------------------------|
E|--------------------------------------------------------------------------|

e|-------3---------3------------3-------------------------------------------|
B|------------3---------3------------3--(3)---------------------------------|
G|--------------0---------0------------0------------------------------------|
D|-----0--------------------------------------------------------------------|
A|---2----------------------------------------------------------------------|
E|-3------------------------------------------------------------------------|

e|-------0----2-------------------------------------------------------------|
B|-----3----------(3)------2----0-------------------------------------------|
G|---2-------------------2----------(2)-------------------------------------|
D|-0-------------------2----------------------------------------------------|
A|-------------------0------------------------------------------------------|
E|--------------------------------------------------------------------------|

e|-------3---------3------------3-------------------------------------------|
B|------------3---------3------------3--(3)---------------------------------|
G|--------------0---------0------------0------------------------------------|
D|-----0--------------------------------------------------------------------|
A|---2----------------------------------------------------------------------|
E|-3------------------------------------------------------------------------|


The very end

e|---------------------------------------------------------------------------0|
B|---------------------------------------------------------------------------3|
G|-2----2-2-4-2-----2-----2-------2-----2----2-2-4-2----2----------------2---2|
D|-0----0-0-0-0-----0-----0---2h4---2-0-0----0-0-0-0----0----2----4----5-----0|
A|----------------------------------------------------------------------------|
E|----------------------------------------------------------------------------|