Decemberists - Oceanside Text Guitar Tab

Learn song with the online tabulature player
heres the solo biatch!!

e-------4-4-4-2-2-2---------4-4-4-2-2-2---------4-4-4-2-2-2----6/7-------|
b---5----------------5---2---------------5---2---------------5-----5-----|
g------------------------------------------------------------------------|
d------------------------------------------------------------------------|
a------------------------------------------------------------------------|
e------------------------------------------------------------------------|

e---5---2--4---------------------------------------|
b-----5--------------------------------------------|
g--------------------------------------------------|
d--------------------------------------------------|
a--------------------------------------------------|
e--------------------------------------------------|