Decemberists - Odalisque Text Guitar Tab

Learn song with the online tabulature player
song      : odalisque
artist    : the decemberists
tabbed by : oneshotnothing


capo on 2nd fret
chords relative to capo


--------------------------------------------------------
slow part
--------------------------------------------------------

intro

e--|4-----------|------2-----|------------|------7-----|
b--|5-----5-----|------2-----|------7-----|------5-5---|
g--|6-----6-----|------2-----|6-----6-6---|6-----6-6---|
d--|6-----------|4-----------|7-----7-7---|7-------7---|
a--|4-----------|4-------2---|0-------0---|0-------0---|
e--|--------0---|2-----------|------------|------------|
    x   x   x   |x   x   x   |x   x   x   |x   x   x   |
    1   2   3   |1   2   3   |1   2   3   |1   2   3   |

e--|4-----------|------2-----|------------|7-----7-----|
b--|5-----5-----|------2-----|------7-----|5-----5-5---|
g--|6-----6-----|------2-----|6-----6-6---|6-----6-6---|
d--|6-----------|4-----------|7-----7-7---|7-------7---|
a--|4-----------|4-------2---|0-------0---|0-------0---|
e--|--------0---|2-----------|------------|------------|
    x   x   x   |x   x   x   |x   x   x   |x   x   x   |
    1   2   3   |1   2   3   |1   2   3   |1   2   3   |

verse

e--|4-----------|------2-----|------------|------7-----|
b--|5-----5-----|------2-----|------7-----|------5-5---|
g--|6-----6-----|------2-----|6-----6-6---|6-----6-6---|
d--|6-----------|4-----------|7-----7-7---|7-------7---|
a--|4-----------|4-------2---|0-------0---|0-------0---|
e--|--------0---|2-----------|------------|------------|
    x   x   x   |x   x   x   |x   x   x   |x   x   x   |
    1   2   3   |1   2   3   |1   2   3   |1   2   3   |

e--|4-----------|------2-----|------------|7-----7-----|
b--|5-----5-----|------2-----|------7-----|5-----5-5---|
g--|6-----6-----|------2-----|6-----6-6---|6-----6-6---|
d--|6-----------|4-----------|7-----7-7---|7-------7---|
a--|4-----------|4-------2---|0-------0---|0-------0---|
e--|--------0---|2-----------|------------|------------|
    x   x   x   |x   x   x   |x   x   x   |x   x   x   |
    1   2   3   |1   2   3   |1   2   3   |1   2   3   |

e--|------4-----|------4-----|4-----------|------2-----|
b--|------4-4---|------4-4---|5-----5-----|------2-----|
g--|4-----4-4---|4-----4-4---|6-----6-----|------2-----|
d--|6-------6---|6-------6---|6-----------|4-----------|
a--|6-------6---|6-------6---|4-----------|4-------2---|
e--|4-----------|4-----------|--------0---|2-----------|
    x   x   x   |x   x   x   |x   x   x   |x   x   x   |
    1   2   3   |1   2   3   |1   2   3   |1   2   3   |

e--|------4-----|------4-----|
b--|------4-4---|------4-4---|
g--|4-----4-4---|4-----4-4---|
d--|6-------6---|6-------6---|
a--|6-------6---|6-------6---|
e--|4-----------|4-----------|
    x   x   x   |x   x   x   |
    1   2   3   |1   2   3   |


structure of slow part:

intro
verse
intro
verse
first half of intro

--------------------------------------------------------
fast part
--------------------------------------------------------

intro

e--|------------|------------|------------|------------|
b--|------2-2-2-|------2-2-2-|------2-2-2-|----2---2---|
g--|2-----2-2-2-|2-----2-2-2-|2-----2-2-2-|2---2---2---|
d--|2-----2-2-2-|2-----2-2-2-|2-----2-2-2-|2---2---2---|
a--|x-----x-x-x-|x-----x-x-x-|x-----x-x-x-|x---0---0---|
e--|2-----0-2-0-|2-----0-2-0-|2-----0-2-0-|2-----------|
    x   x   x   |x   x   x   |x   x   x   |x   x   x   |
    1   2   3   |1   2   3   |1   2   3   |1   2   3   |

verse
e--|------------|------------|------------|------------|
b--|------2-2-2-|------2-2-2-|------2-2-2-|----2---2---|
g--|2-----2-2-2-|2-----2-2-2-|2-----2-2-2-|2---2---2---|
d--|2-----2-2-2-|2-----2-2-2-|2-----2-2-2-|2---2---2---|
a--|x-----x-x-x-|x-----x-x-x-|x-----x-x-x-|x---0---0---|
e--|2-----0-2-0-|2-----0-2-0-|2-----0-2-0-|2-----------|
    x   x   x   |x   x   x   |x   x   x   |x   x   x   |
    1   2   3   |1   2   3   |1   2   3   |1   2   3   |

e--|------------|------------|------------|------------|
b--|------2-2-2-|------2-2-2-|2-----2-2-2-|2-----2-2-2-|
g--|2-----2-2-2-|2-----2-2-2-|2-----2-2-2-|2-----2-2-2-|
d--|2-----2-2-2-|2-----2-2-2-|2-----2-2-2-|2-----2-2-2-|
a--|x-----x-x-x-|x-----x-x-x-|0-----0-0-0-|0-----0-0-0-|
e--|2-----0-2-0-|2-----0-2-0-|------------|------------|
    x   x   x   |x   x   x   |x   x   x   |x   x   x   |
    1   2   3   |1   2   3   |1   2   3   |1   2   3   |

chorus

e--|0-----0-0-0-|0-----0-0-0-|1-----1-1-1-|1-----1-1-1-|
b--|0-----0-0-0-|0-----0-0-0-|0-----0-0-0-|0-----0-0-0-|
g--|1-----1-1-1-|1-----1-1-1-|4-----4-4-4-|4-----4-4-4-|
d--|2-----2-2-2-|2-----2-2-2-|3-----3-3-3-|3-----3-3-3-|
a--|2-----2-2-2-|2-----2-2-2-|4-----4-4-4-|4-----4-4-4-|
e--|0-----0-0-0-|0-----0-0-0-|x-----x-x-x-|x-----x-x-x-|
    x   x   x   |x   x   x   |x   x   x   |x   x   x   |
    1   2   3   |1   2   3   |1   2   3   |1   2   3   |

e--|2-----2-2-2-|2-----2-2-2-|2-----2-2-2-|2-----2-2-2-|
b--|2-----2-2-2-|2-----2-2-2-|3-----3-3-3-|3-----3-3-3-|
g--|2-----2-2-2-|2-----2-2-2-|4-----4-4-4-|4-----4-4-4-|
d--|4-----4-4-4-|4-----4-4-4-|4-----4-4-4-|4-----4-4-4-|
a--|4-----4-4-4-|4-----4-4-4-|2-----2-2-2-|2-----2-2-2-|
e--|2-----2-2-2-|2-----2-2-2-|------------|------------|
    x   x   x   |x   x   x   |x   x   x   |x   x   x   |
    1   2   3   |1   2   3   |1   2   3   |1   2   3   |

e--|2-----2-2-2-|0-----0-0-0-|2-----2-2-2-|2-----2-2-2-|
b--|3-----3-3-3-|0-----0-0-0-|3-----3-3-3-|3-----3-3-3-|
g--|4-----4-4-4-|1-----1-1-1-|2-----2-2-2-|2-----2-2-2-|
d--|4-----4-4-4-|2-----2-2-2-|0-----0-0-0-|0-----0-0-0-|
a--|2-----2-2-2-|2-----2-2-2-|------------|------------|
e--|------------|0-----0-0-0-|------------|------------|
    x   x   x   |x   x   x   |x   x   x   |x   x   x   |
    1   2   3   |1   2   3   |1   2   3   |1   2   3   |

e--|2-----2-2-2-|2-----2-2-2-|
b--|3-----3-3-3-|3-----3-3-3-|
g--|2-----2-2-2-|2-----2-2-2-|
d--|0-----0-0-0-|0-----0-0-0-|
a--|------------|------------|
e--|------------|------------|
    x   x   x   |x   x   x   |
    1   2   3   |1   2   3   |

bridge

     g# part           a part
e--|------------|   |------------|
b--|------------|   |------------|
g--|------------|   |6-6-6-6-6---|
d--|6-6-6-6-6---|   |7-7-7-7-7---|
a--|6-6-6-6-6---|   |7-7-7-7-7---|
e--|4-4-4-4-4---|   |5-5-5-5-5---|
    x   x   x   |    x   x   x   |
    1   2   3   |    1   2   3   |

     picking part 1
e--|------------|------------|------------|------------|
b--|------------|5-----------|------------|5-----------|
g--|--------6---|----6-------|--------6---|----6-------|
d--|----6-------|--------6---|----6-------|--------6---|
a--|4-----------|------------|3-----------|------------|
e--|------------|------------|------------|------------|
    x   x   x   |x   x   x   |x   x   x   |x   x   x   |
    1   2   3   |1   2   3   |1   2   3   |1   2   3   |

     picking part 2
e--|------------|------------|------------|------------|
b--|------------|2-----------|------------|2-----------|
g--|--------2---|----2-------|--------3---|----3-------|
d--|----2-------|--------2---|----2-------|--------2---|
a--|------------|------------|------------|------------|
e--|2-----------|------------|3-----------|------------|
    x   x   x   |x   x   x   |x   x   x   |x   x   x   |
    1   2   3   |1   2   3   |1   2   3   |1   2   3   |


structure of fast part:

intro x2
verse
intro x2
verse
intro x2
chorus

intro x2
verse
intro x2
verse
intro x2
chorus

bridge g# part x16
bridge a  part x4
bridge g# part x12
bridge a  part x4
bridge g# part x4
bridge picking part 1
bridge g# part x4
bridge picking part 1
bridge picking part 2

chorus
intro x2
verse
end on f#m