Decyfer Down - Best I Can Text Guitar Tab

Learn song with the online tabulature player
By Request
Come in At 0:11                                                       x2
G| |-----------------------------------------------------------------| |
A|o|-----------------------------------------------------------------|o|
D| |---------------------------8-------------------------------------| |
E|o|-3-3-3-3-5-5-5-6-6-6-6-6-6---6~~/3-3-3-3-5-5-5-------------------|o|
B| |-----------------------------------------------4-4-4-4-4-4-4-4-4-| |

|---------------------------------------------------------|
|---------------------------------------------------------|
|---------------------------------------------------------|
|-6-6-6-6-5-5-5-5-3-3-3-3-----------------3-3-3-3---8-----|
|-------------------------6-6-6-6-4-4-4-4---------6---6-6-|
                                                                 x2
| |-------------------------------------------------------------| |
|o|-------------------------------------------------------------|o|
| |-------------------------------------------------------------| |
|o|-6----6----6-6-6-6-------------------3-3-3-3-----------------|o|
| |-------------------4----4----4-4-4-4---------6-6-6-6-4-4-4-4-| |

|----------------------|
|----------------------|
|----------------------|
|-3-3-3-3--------------|
|---------6-6-6-6-4~~~~|
                                                                      x2
| |-----------------------------------------------------------------| |
|o|-----------------------------------------------------------------|o|
| |---------------------------8-------------------------------------| |
|o|-3-3-3-3-5-5-5-6-6-6-6-6-6---6~~/3-3-3-3-5-5-5-------------------|o|
| |-----------------------------------------------4-4-4-4-4-4-4-4-4-| |

|---------------------------------------------------------|
|---------------------------------------------------------|
|---------------------------------------------------------|
|-6-6-6-6-5-5-5-5-3-3-3-3-----------------3-3-3-3---8-----|
|-------------------------6-6-6-6-4-4-4-4---------6---6-6-|
                                                                 x2
| |-------------------------------------------------------------| |
|o|-------------------------------------------------------------|o|
| |-------------------------------------------------------------| |
|o|-6----6----6-6-6-6-------------------3-3-3-3-----------------|o|
| |-------------------4----4----4-4-4-4---------6-6-6-6-4-4-4-4-| |

|---------------------------------|
|---------------------------------|
|---------------------------------|
|-3-3-3-3-------------------------|
|---------6-6-6-6-4-4-4-4-4-4-4-4-|

|-----------------------------------------------------------------|
|-----------------------------------------------------------------|
|-----------------------------------------------------------------|
|-3-3-3-3-3-3-3-3-----------------6-6-6-6-6-6-6-6-6-6-6-6-6-6-6-6-|
|-----------------6-6-6-6-6-6-6-6---------------------------------|

|----------------------------------------------------|
|----------------------------------------------------|
|----------------------------------------------------|
|-3-3-3-3-3-3-3-3-----------------6-6-6-6-3-3-3-6~~~~|
|-----------------6-6-6-6-6-6-6-6--------------------|

|-----------------|
|-----------------|
|-----------------|
|-6-6-6-6-6-6-6---|
|-----------------|
                                                                 x2
| |-------------------------------------------------------------| |
|o|-------------------------------------------------------------|o|
| |-------------------------------------------------------------| |
|o|-6----6----6-6-6-6-------------------3-3-3-3-----------------|o|
| |-------------------4----4----4-4-4-4---------6-6-6-6-4-4-4-4-| |

|----------------------|
|----------------------|
|----------------------|
|-3-3-3-3--------------|
|---------6-6-6-6-4~~~~|

|-------------------------------------------------------------------|
|-------------------------------------------------------------------|
|-------------------------------------------------------------------|
|-6-6-6-6-6-6-6-6-------------------3-3-3-3-------------------------|
|-------------------4-4-4-4-4-4-4-4---------6-6-6-6-4-4-4-4-4-4-4-4-|

|-------------------------------------------------------------|
|-------------------------------------------------------------|
|-------------------------------------------------------------|
|-6----6----6-6-6-6-------------------3-3-3-3-----------------|
|-------------------4----4----4-4-4-4---------6-6-6-6-4-4-4-4-|

|----------------------|
|----------------------|
|----------------------|
|-3-3-3-3--------------|
|---------6-6-6-6-4~~~~|