Deep Purple - This Time Around Text Guitar Tab

Learn song with the online tabulature player
Owed to G

(Deep Purple)

Da "Come Taste The Band", 1975

Key: Em6

Em6

E|-------------------------------------------------------------------------|
B|-------------------------------------------------------------------------|
G|-------------------------------------------------------------------------|
D|------4-------5------4---4/5-4--------4-------5------4---4/5-4-----------|
A|----2---2---4------2---2-------4----2---2---4------2---2-------4---------|
E|--0-------0------0----------------0-------0------0-----------------------|

AG/AAG/A

E|----0---------0-2-----|
B|--2---2-0---2-----0---|
G|--2---2-0---2-----0---|
D|----------------------|
A|----------------------|
E|----------------------|

Em6C7B7C7B7

E|-------------------------------------6--5------6--5----------------------|
B|-----------------------------------5----4----5----4----------------------|
G|-----------------------------------5----4----5----4----------------------|
D|------4-------5------4---4/5-4-----------------------2--0----------------|
A|----2---2---4------2---2-------4---------------------------2--0----------|
E|--0-------0------0-----------------------------------------------3-------|

Repeat from the beginning and then

Em6/9

E|------------------------------2----|
B|------5-3----------5-3--------2----|
G|----------4-2-0-3------4-2-0--0----|
D|------------------------------2----|
A|------------------------------2----|
E|--0--------------------------------|