Deer Tick - Baltimore Blues No 1 Text Guitar Tab

Learn song with the online tabulature player
-------------------------------------------------------------------------------
                    Baltimore Blues No. 1 - Deer Tick
-------------------------------------------------------------------------------
Tabbed by: Checkeroo

Tuning: Standard

Dm      XX0231
F       133211
Gm      355333
Bb      X13331
C       X32010
Am      X02210
A7      X02020

Verse:
|  Dm  |  F  |  Gm  |  Bb  |   
Kiss all ...
|  Dm  |  F  |  Gm  |  Bb  |   
Offer them up ...
etc.

Main Riff:
  Dm         F            Gm          Bb
e|-0h1------|-1-------1--|----6---0--|---1---0--|
B|-----3----|-----1------|------3----|-----1----|
G|-------2--|-------2----|-----------|----------|
D|-0--------|---3--------|-/5--------|----------|
A|----------|------------|-----------|-1--------|
E|----------|------------|-----------|----------|

Fill:
"No doubt, I'd sell you all out," etc.
  Dm         F            Gm          Bb
e|-----10---|-8----------|----6---0--|---1---0--|
B|-----10---|---10-------|------3----|-----1----|
G|-----10---|------------|-----------|----------|
D|-0---12---|---------3--|-3h5-------|----------|
A|----------|------------|-----------|-1--------|
E|----------|------------|-----------|----------|

Chorus:
|  Dm  |  C  |  Bb  |  F  |
I set out ...
|  Am  |     |  Gm  |     |
And out there ...
|  Dm  |  C  |  Bb  |  F  |
But listen Jack ...
|  Am  |     |  A7  |     |
At least now ...