Deerhunter - Famous Last Words Text Guitar Tab

Learn the song with the online tablature player
I'm not sure about the verse, but
it may go something like this:

E|-----------------|
B|-----------------|
G|-9-9-9-13-11-6---|
D|-9-9-9-13-11-6---|
A|-7-7-7-11--9-4---|
e|-----------------|

And then the guitar break goes:

E|-----------------------------------------------|
B|-5----9-7-------5----9-7-----------------------|
G|-----------6--------------6--------------------|
D|-----------------------------------------------|
A|-----------------------------------------------|
e|-----------------------------------------------|

Can't figure out the chorus.