Deerhunter - Microcastle Text Guitar Tab

Learn song with the online tabulature player
-------------------------------------------------------------------------------
                             MICROCASTLE - Deerhunter
-------------------------------------------------------------------------------
Tabbed by: mmmfrieduka89
Email: ufonuoha@gmail.com

This is a pretty simple tab for the soloish notes at the end of the song. Timing's not 
really reflected here, but it's pretty easy to figure out. Cheers.

Tuning: Standard

e|----5--3-------------------------------------------------------------------|
B|-6--------5--6--3----------------------------------------------------------|
G|---------------------------------------------------------------------------|
D|---------------------------------------------------------------------------|
A|---------------------------------------------------------------------------|
E|---------------------------------------------------------------------------|


e|---------------------------------------------------------------------------|
B|-----------------6---------------------------------------------------------|
G|-5--5---------------7------------------------------------------------------|
D|-------9--5--7-------------------------------------------------------------|
A|---------------------------------------------------------------------------|
E|---------------------------------------------------------------------------|