Deftones - Teething Text Bass Tab

Learn the song with the online tablature player
I dont really tab songs but i thought this should be tabbed so dont blame me if its
wrong.
  Intro/verse                                         other Verse bit:
G------------------------------------|-----------------------------------------
D------------------------------------|----------------------------------------
A------------------------------------|----------------------------------------
E-3-2-4-3-2-2---2-2-1-3-2------------|---------1h0-0-0-1h0-0-0-1h0-0-0-1h0-0-||-

                          Bass bit:
G---------------|-------------------------------------------------------------
D---------------|-----------------------------------------------------------
A---------------|------7---5h7-----7---5h7-----7h8---------------------------
E--1-1-1-1-1-1--|---0-0---0-----0-0---0-----0-0-------------------------------

G-----------------------------------------------------------------------------
D----------------------------------------------------------------------------
A-7h8-----7h8-----7h8-----7h8-----------------------------8---7---8-----------
E----0-0-----0-0-----0-0-----0-0---------------------------0---0---0---------

G-----------------------------------------------------------------------------
D-----------------------------------------------------------------------------
A----------------------------------------------------------------------------
E 0-0---0-0---0-0---0-0---6-5-3---0-0---0-0---0-0---0-0---0-0----------------