Delain - April Rain Text Guitar Tab

Learn the song with the online tablature player
Delain - April Rain

Key:

~ = Sustain
h = Hammer-on
p = Pull-off
s = Slide
b = Bend

Verse
E--------------------------------|--------------------------------|
A-8-8-9-11-9-8----8--------6-----|-8-8-9-11-9-8---8---------6s8---|
D--------------10---10-8-8---8-5-|--------------10--10--8-8-------|
G--------------------------------|--------------------------------|
B--------------------------------|--------------------------------|
e--------------------------------|--------------------------------|
"How does it feel..."             "Every wind that you..."

E--------------------------------|--------------------------------|
A-8-8-9-11-9-8----8--------6-----|-8-8-9-11-8-9---8-9-11----------|
D--------------10---10-8-8---8-5-|--------------------------------|
G--------------------------------|--------------------------------|
B--------------------------------|--------------------------------|
e--------------------------------|--------------------------------|
"Every summer you have seen..."   "It doesn't get easy..."

Chorus
E--------------------------------|--------------------------------|
A-8~-9~-11~-9p8------------------|----8-8~-9~--8-9-8----8~--------|
D---------------10---------------|-10----------------10-----------|
G--------------------------------|--------------------------------|
B--------------------------------|--------------------------------|
e--------------------------------|--------------------------------|
"Fortune, smiles on you..."       "Your not watching..."

E--------------------------------|--------------------------------|
A-8~-9~-11~-9p8------------------|----8-8~-9~--8-9-8--------------|
D---------------10~--------------|-10----------------10~-8-7-5~---|
G--------------------------------|--------------------------------|
B--------------------------------|--------------------------------|
e--------------------------------|--------------------------------|
"Fortune, smiles on you..."       "Create your own fate..."

Verse
E--------------------------------|--------------------------------|
A-8-8-9-11-9-8----8--------6-----|-8-8-9-11-9-8---8---------6s8---|
D--------------10---10-8-8---8-5-|--------------10--10--8-8-------|
G--------------------------------|--------------------------------|
B--------------------------------|--------------------------------|
e--------------------------------|--------------------------------|
"Count your blessings..."         "All those days that you..."

E--------------------------------|--------------------------------|
A-8-8-9-11-9-8----8--------6-----|-8-8-9-11-8-9---8-9-11----------|
D--------------10---10-8-8---8-5-|--------------------------------|
G--------------------------------|--------------------------------|
B--------------------------------|--------------------------------|
e--------------------------------|--------------------------------|
"Take off those glasses..."       "It doesn't get easy..."

Chorus
E--------------------------------|--------------------------------|
A-8~-9~-11~-9p8------------------|----8-8~-9~--8-9-8----8~--------|
D---------------10---------------|-10----------------10-----------|
G--------------------------------|--------------------------------|
B--------------------------------|--------------------------------|
e--------------------------------|--------------------------------|
"Fortune, smiles on you..."       "Your not watching..."

E--------------------------------|--------------------------------|
A-8~-9~-11~-9p8------------------|----8-8~-9~--8-9-8--------------|
D---------------10~--------------|-10----------------10~-8-7-5~---|
G--------------------------------|--------------------------------|
B--------------------------------|--------------------------------|
e--------------------------------|--------------------------------|
"Fortune, smiles on you..."       "Your not watching..."

Solo
E-----------------------------------------------------------------|
A-8b9---------------8---------------------------------8-----------|
D-----10-8-8h10-------10-8-7h8----------7-7-8-8-10-10-------------|
G---------------10-------------10-10-10---------------------------|
B-----------------------------------------------------------------|
e-----------------------------------------------------------------|

Chorus
E--------------------------------|--------------------------------|
A-8~-9~-11~-9p8------------------|----8-8~-9~--8-9-8----8~--------|
D---------------10---------------|-10----------------10-----------|
G--------------------------------|--------------------------------|
B--------------------------------|--------------------------------|
e--------------------------------|--------------------------------|
"Fortune, smiles on you..."       "Your not watching..."

E--------------------------------|--------------------------------|
A-8~-9~-11~-9p8------------------|----8-8~-9~--8-9-8--------------|
D---------------10~--------------|-10----------------10~-8-7-5~---|
G--------------------------------|--------------------------------|
B--------------------------------|--------------------------------|
e--------------------------------|--------------------------------|
"Fortune, smiles on you..."       "Your not watching..."