Delain - Frozen Text Guitar Tab

Learn song with the online tabulature player
Artist: Delain
Song: Frozen
Tabbed By: penguins92990@yahoo.com

Tuning: Drop C

. = staccato note
x = mute note
~ = let ring
/ = slide up
\ = slide down
h = hammer-on
p = pull-off

Notes:
 - Delain does not use Drop C tuning, but instead a detuned 7-string guitar, tuned to (I 
A# standard.  I use Drop C

though, and this song plays rather easily in Drop C. If you use a 7-string to play this, 
that in the second measure of

the intro section (and corresponding measures in the chorus) there is a low A#5 instead 
the tabbed high A#5 as in the

other measures.
 - The solo for the lead guitar is NOT 100% correct, but it seems reasonably close to 
Consider the solo in this tab to be

more of a guideline than the actual solo.
 - This tab is for the cut version of the song in the video, not the full song on the album.


Intro
D|---------------------|---------------------|---------------------|---------------------|
A|---------------------|---------------------|---------------------|---------------------|
F|-----3---3-----5---5-|-----3---3-----5---5-|-----3---3-----5---5-|-3-----5-----7---7\--|
C|-0-0-3---3-5-5-5---5-|-0-0-3---3-5-5-5---5-|-0-0-3---3-5-5-5---5-|-3-----5-----7---7\--|
G|-0-0-1---1-5-5-3---3-|-0-0-1---1-5-5-3---3-|-0-0-1---1-5-5-3---3-|-1-----3-----5---5\--|
C|-0-0-------5-5-------|-0-0-------5-5-------|-0-0-------5-5-------|---------------------|

Verse 1

"Misty windows hide your empty eyes..."
D|----------------------------------|----------------------------------|
A|----------------------------------|----------------------------------|
F|-----------------3---3------------|----------------------------------|
C|-5---55-55---5---3---3---3---30---|-5---55-55---5---1---3---3/5---5\-|
G|-5---55-55---5---1---1---3---30---|-5---55-55---5---1---3---3/5---5\-|
C|-5---55-55---5-----------3---30---|-5---55-55---5---1---3---3/5---5\-|
       .. .                               .. .

D|----------------------------------|----------------------------------|
A|----------------------------------|----------------------------------|
F|-----------------3---3------------|----------------------------------|
C|-5---55-55---5---3---3---3---30---|-5---55-55---5---1---3---3/5---5\-|
G|-5---55-55---5---1---1---3---30---|-5---55-55---5---1---3---3/5---5\-|
C|-5---55-55---5-----------3---30---|-5---55-55---5---1---3---3/5---5\-|
       .. .                               .. .

Chorus

"Answer me, till the day that you do..."
D|---------------------|---------------------|---------------------|-----------------|
A|---------------------|---------------------|---------------------|-----------------|
F|-----3---3-----5---5-|-----3---3-----5---5-|-----3---3-----5---5-|-3---3---2~------|
C|-0-0-3---3-5-5-5---5-|-0-0-3---3-5-5-5---5-|-0-0-3---3-5-5-5---5-|-3---3---2---232-|
G|-0-0-1---1-5-5-3---3-|-0-0-1---1-5-5-3---3-|-0-0-1---1-5-5-3---3-|-1---1---0~------|
C|-0-0-------5-5-------|-0-0-------5-5-------|-0-0-------5-5-------|-----------------|

D|---------------------|---------------------|---------------------|---------------------|
A|---------------------|---------------------|---------------------|---------------------|
F|-----3---3-----5---5-|-----3---3-----5---5-|-----3---3-----5---5-|-3-----5-----7---7\--|
C|-0-0-3---3-5-5-5---5-|-0-0-3---3-5-5-5---5-|-0-0-3---3-5-5-5---5-|-3-----5-----7---7\--|
G|-0-0-1---1-5-5-3---3-|-0-0-1---1-5-5-3---3-|-0-0-1---1-5-5-3---3-|-1-----3-----5---5\--|
C|-0-0-------5-5-------|-0-0-------5-5-------|-0-0-------5-5-------|---------------------|
   . .

Verse 2

"Needles sting me when you look away..."
D|----------------------------------|-------------------------------|
A|----------------------------------|-------------------------------|
F|-----------------3---3------------|-------------------------------|
C|-5---55-55---5---3---3---3---30---|-5---55-55---5---0--0x-0---3---|
G|-5---55-55---5---1---1---3---30---|-5---55-55---5---0--0x-0---3---|
C|-5---55-55---5-----------3---30---|-5---55-55---5---0--0x-0---3---|
       .. .                               .. .

D|----------------------------------|----------------------------------|
A|----------------------------------|----------------------------------|
F|-----------------3---3------------|------------------2--2--2~--------|
C|-5---55-55---5---3---3---3---30---|-11-11-11-1-11-1--2--2--2--320230-|
G|-5---55-55---5---1---1---3---30---|-11-11-11-1-11-1--0--0--0~--------|
C|-5---55-55---5-----------3---30---|-11-11-11-1-11-1------------------|
       .. .                           .. .. .. . .. .

Chorus

"Answer me, till the day that you do..."
D|---------------------|---------------------|---------------------|-----------------|
A|---------------------|---------------------|---------------------|-----------------|
F|-----3---3-----5---5-|-----3---3-----5---5-|-----3---3-----5---5-|-3---3---2~------|
C|-0-0-3---3-5-5-5---5-|-0-0-3---3-5-5-5---5-|-0-0-3---3-5-5-5---5-|-3---3---2---232-|
G|-0-0-1---1-5-5-3---3-|-0-0-1---1-5-5-3---3-|-0-0-1---1-5-5-3---3-|-1---1---0~------|
C|-0-0-------5-5-------|-0-0-------5-5-------|-0-0-------5-5-------|-----------------|

D|---------------------|---------------------|---------------------|---------------------|
A|---------------------|---------------------|---------------------|---------------------|
F|-----3---3-----5---5-|-----3---3-----5---5-|-----3---3-----5---5-|-3-----5-----7---7\--|
C|-0-0-3---3-5-5-5---5-|-0-0-3---3-5-5-5---5-|-0-0-3---3-5-5-5---5-|-3-----5-----7---7\--|
G|-0-0-1---1-5-5-3---3-|-0-0-1---1-5-5-3---3-|-0-0-1---1-5-5-3---3-|-1-----3-----5---5\--|
C|-0-0-------5-5-------|-0-0-------5-5-------|-0-0-------5-5-------|---------------------|
   . .

Bridge (no guitar till after the singing)

"Free your mind from doubts..."
"...it will only bring you pain"

D|------------|-----------------|------------|---------|-----------|
A|------------|-----------------|------------|---------|----(x4)---|
F|------------|-----------------|------------|---------|-----------|
C|-8-8-8---88-|-10-10-10---1010-|-8-8-8---88-|-5---7---|-888888888-|
G|-8-8-8---88-|-10-10-10---1010-|-8-8-8---88-|-5---7---|-888888888-|
C|-8-8-8---88-|-10-10-10---1010-|-8-8-8---88-|-5---7---|-888888888-|

Solo (Lead Guitar)

D|-15---15---17--18-18--17--15h17p15 13-|-18b~---17p15h17~\---|
A|--------------------------------------|---------------------|
F|--------------------------------------|---------------------|
C|--------------------------------------|---------------------|
G|--------------------------------------|---------------------|
C|--------------------------------------|---------------------|

D|-22------20------18-----------|-----------------------17-15-----------------|
A|---22--20--20--18--18---------|-----------------------------18-17-18-17-15~-| <- let 
through first
F|-----19------17------17-15~---|-14h15-14h15-14h15-14v-----------------------|    
of chorus
C|------------------------------|---------------------------------------------|
G|------------------------------|---------------------------------------------|
C|------------------------------|---------------------------------------------|

Solo (Rhythm Guitar)

D|---------------------|-------------------|-----------------|-------------------|
A|---------------------|-------------------|-----------------|-------------------|
F|---------------------|-3---3-------------|-----------------|-2---2---2~--------|
C|-5--55-5--55-5---5---|-3---3---3---3-0---|-11-11-11-1-11-1-|-2---2---2--320230-|
G|-5--55-5--55-5---5---|-1---1---3---3-0---|-11-11-11-1-11-1-|-0---0---0~--------|
C|-5--55-5--55-5---5---|---------3---3-0---|-11-11-11-1-11-1-|-------------------|
      ..    ..                               .. .. .. . .. .

Chorus

"Answer me, till the day that you do..."
D|---------------------|---------------------|---------------------|-----------------|
A|---------------------|---------------------|---------------------|-----------------|
F|-----3---3-----5---5-|-----3---3-----5---5-|-----3---3-----5---5-|-3---3---2~------|
C|-0-0-3---3-5-5-5---5-|-0-0-3---3-5-5-5---5-|-0-0-3---3-5-5-5---5-|-3---3---2---232-|
G|-0-0-1---1-5-5-3---3-|-0-0-1---1-5-5-3---3-|-0-0-1---1-5-5-3---3-|-1---1---0~------|
C|-0-0-------5-5-------|-0-0-------5-5-------|-0-0-------5-5-------|-----------------|

D|---------------------|---------------------|---------------------|
A|---------------------|---------------------|---------------------|
F|-----3---3-----5---5-|-----3---3-----5---5-|-----3---3-----5---5-|
C|-0-0-3---3-5-5-5---5-|-0-0-3---3-5-5-5---5-|-0-0-3---3-5-5-5---5-|
G|-0-0-1---1-5-5-3---3-|-0-0-1---1-5-5-3---3-|-0-0-1---1-5-5-3---3-|
C|-0-0-------5-5-------|-0-0-------5-5-------|-0-0-------5-5-------|
   . .

D|---------------------|---------------------|---------------------|
A|---------------------|---------------------|---------------------|
F|---------------------|-5~------------------|-7~------------------|
C|-5~------------------|-5~------------------|-7~------------------|
G|-5~------------------|-3~------------------|-5~------------------|
C|-5~------------------|---------------------|-0~------------------|

Enjoy!