Delirious? - God Is Smiling Text Guitar Tab

Learn song with the online tabulature player
Hey,
This is the intro of the song:
God is Smiling, written by Delirious?
God Bless!


E-------------------------------|
B-------------------------------|
G---4-4-4-4-4-4-4-4-4-4-4-4-4---|   (Like a Bm chord)
D---4-4-4-4-4-4-4-4-4-4-4-4-4---|
A---2-2-0-2-2-0-2-2-0-2-4-2-0---|
E-------------------------------|

E-------------------------------|
B-------------------------------|
G-------------------------------|   (Like a F#m chord)
D---4-4-4-4-4-4-4-4-4-4-4-4-4---|
A---4-4-4-4-4-4-4-4-4-4-4-4-4---|
E---2-2-0-2-2-0-2-2-0-2-4-2-0---|


Do you have any requirements our questions please mail me,
stefanvandegronden@msn.com