Delirious? - Miracle Maker Text Guitar Tab

Learn song with the online tabulature player
e|-----------------------------------------------------------------------------|
B|-----------------13--------------------------------13------------------------|
G|----15----15--12-------12-15-14-12---11-12-11-12-14-15-14-12-----12------12--|
D|-12----12---------14-15------------15-----------------------14-15--14-15--11-|
A|-----------------------------------------------------------------------------|
E|-----------------------------------------------------------------------------|

e|------------------------|
B|------------------------|
G|---------14-14-14-14-14-|
D|-11-11-11---------------|
A|------------------------|
E|------------------------|


| /  slide up
| \  slide down
| h  hammer-on
| p  pull-off
| ~  vibrato
| +  harmonic
| x  Mute note

mod version of the other ava miracle maker solo tab on this web.
this might not be totally correct plz msg me if mistakes found the ending part i not 
sure also.. thank you have a nice day.