Demi Lovato - All Night Long Text Guitar Tab

Learn song with the online tabulature player
Artist: Demi Lovato - Mike Tompkins Cover - A Capella - Official – Feat. Timbaland
Song: All Night Long
Tuning: Standard

Guitar 1
|------------------------------------------------|
|-5-5-5-0-1---1-x-1-x----------------------------|
|--------------------------0-0-0-----0---0-------|         
|--------------------------------0-2---0---2-----|         
|------------------------------------------------|         
|------------------------------------------------|

Guitar 2

|-----------------------3-3-3-3-0-x--0-0-x-0-0---|
|-----------------------3-3-3-3-0-x--0-0-x-0-0---|
|-9-9-9-9-5-x--5-x-5-x--0-0-0-0-0-x--0-0-x-0-0---|
|-9-9-9-9-5-x--5-x-5-x--0-0-0-0-2-x--2-2-x-2-2---|
|-7-7-7-7-3-x--3-x-3-x--2-2-2-2-2-x--2-2-x-2-2---|
|-----------------------3-3-3-3-0-x--0-0-x-0-0---|


enjoy!!!!