Demi Lovato - Shadow Text Guitar Tab

Learn song with the online tabulature player
SHADOW - DEMI LOVATO

INTRO LEAD  
e|--9-11-12-11---9-12--9-11-|
B|-9------------9-----9-----|
G|--------------------------| x2
D|--------------------------|
A|--------------------------|
E|--------------------------|

then:
-----------------9p7h9-9p7h9p7h9-|
-9p7h9-9p7h9p7h9-----------------|
---------------------------------|
---------------------------------|
---------------------------------|
---------------------------------|

INTRO RYTHYM

e|-----------------------------------------------|
B|-----------------------------------------------|
G|-66-6666-55-4444-66-6666-55-4444-222222-999999-|
D|-66-6666-55-4444-66-6666-55-4444-222222-999999-|
A|-44-4444-33-2222-44-4444-33-2222-000000-777777-|
E|-----------------------------------------------|

VERSE
e|--------------------------------|
B|--------------------------------|
G|--6----5----4----2--------------| x2
D|--6----5----4----2--------------|
A|--4----3----2----0--------------|
E|--------------------------------|

then:
e|------------------------------|
B|------------------------------|
G|--999-99-9999-999-99-9999-----| x3
D|--999-99-9999-999-99-9999-----|
A|--777-77-7777-777-77-7777-----|
E|------------------------------|

CHORUS RYTHYM
e|--------------------------------|
B|--------------------------------|
G|--4----6----4----6--5-4-2-------| x2
D|--4----6----4----6--5-4-2-------|
A|--2----4----2----4--3-2-0-------|
E|--------------------------------|


CHORUS LEAD
e|----------------------------|
B|-----5-7-5-4----------------|
G|-4-6---------6--------------|
D|----------------------------|
A|----------------------------|
E|----------------------------|

INTERLUDE
e|------------------------------------------|
B|------------------------------------------|
G|-55-4-55-6-44444444-55-4-55-6-22-44-55-77-|
D|-55-4-55-6-44444444-55-4-55-6-22-44-55-77-|
A|-33-2-33-4-22222222-33-2-33-4-00-22-33-55-|
E|------------------------------------------|

OUTRO
e|--------------------------------|
B|--------------------------------|
G|-2----4----5----7----9----------| x2
D|-2-x8-4-x8-5-x8-7-x8-9-x8-------|
A|-0----2----3----5----7----------|
E|--------------------------------|

SONG ORDER
----------
INTRO [both]
VERSE
CHORUS
INTERLUDE
INTRO RYTHYM
VERSE
CHORUS
INTERLUDE
INTRO RYTHYM
OUTRO

tabbed by jeremy v