Demi Lovato - So Far So Great Text Guitar Tab

Learn song with the online tabulature player
ok this is my first tab and its just the first verse so feel free to comment and correct 
XD


e------------------------------------|
B------------------------------------|
G--------------------0---------------|
D-------0--2--3--4-------4--2--4--2--|  X2
A---2--------------------------------|
E------------------------------------|

off to the races, I'm going places,
might be a long shot, not gonna waste this,

e---------------------------------------------|
B---------------------------------------------|
G----------------------------------0-----0----|
D-------0--2--3--4----2--4--0--2--4-------4---|
A---2-----------------------------------------|
E---------------------------------------------|

this is the big break.. and it's calling my name..yea