Demi Lovato - Solo Text Guitar Tab

Learn song with the online tabulature player
-------------------------------------------------------------------------------
			     SOLO - Demi Lovato
-------------------------------------------------------------------------------
Tabbed by:  xStrawberryKissx
Email: talitha@f2s.com

Tuning: Standard


	INTRO

e|-----------------------------|
B|-----------------------------|
G|------5----------------------|
D|------5-x16------------------|
A|------3----------------------|
E|-----------------------------|


	Verse One (palm mute)

e|--------------------------------------------------------------------------|
B|--------------------------------------------------------------------------|
G|------5-------------------------------------------------------------------|
D|------5-x16---5--------7-------3--------3-3-3-----------------------------|
A|------3-------5-x16----7-x16---3-x13----3-3-3-----------------------------|
E|--------------3--------5-------1--------1-1-1-----------------------------|

e|--------------------------------------------------------------------------|
B|--------------------------------------------------------------------------|
G|------5-------------------------------------------------------------------|
D|------5-x16---5--------7-------3--------3-3-3-----------------------------|
A|------3-------5-x16----7-x16---3-x13----3-3-3-----------------------------|
E|--------------3--------5-------1--------1-1-1-----------------------------|



	PRE CHORUS

e|--------------------------------------------|
B|--------------------------------------------|
G|------9-------------------------------------|
D|------9-x8------3--------5------------------|
A|------7---------3-x8-----5------------------|
E|----------------1--------3------------------|

	CHORUS

e|--------------------------------------------------------------------------|
B|--------------------------------------------------------------------------|
G|-----5------------------------------5-----3-------------------------------|
D|-----5-x8---5------7------3---------5-x8--3-x8----3-3-3-3-33-----5--------|
A|-----3------5-x8---7-x8---3-x8------3-----1-------3-3-3-3-33-----5-x8-----|
E|------------3------5------1-----------------------1-1-1-1-11-----3--------|

e|--------------------------------------------------------------------------|
B|--------------------------------------------------------------------------|
G|-----5------------------------------5-----3----------------------------5--|
D|-----5-x8---5------7------3---------5-x8--3-x8----3-3-3-3-33----5------5--|
A|-----3------5-x8---7-x8---3-x8------3-----1-------3-3-3-3-33----5-x8---3--|
E|------------3------5------1-----------------------1-1-1-1-11----3---------|


	Verse Two (Palm Mute)

e|--------------------------------------------------------------------------|
B|--------------------------------------------------------------------------|
G|------5-------------------------------------------------------------------|
D|------5-x16---5--------7-------3------------------------------------------|
A|------3-------5-x16----7-x16---3-x16--------------------------------------|
E|--------------3--------5-------1------------------------------------------|

e|--------------------------------------------------------------------------|
B|--------------------------------------------------------------------------|
G|------5-------------------------------------------------------------------|
D|------5-x16---5--------7-------3------------------------------------------|
A|------3-------5-x16----7-x16---3-x16--------------------------------------|
E|--------------3--------5-------1------------------------------------------|


	PRE CHORUS

e|--------------------------------------------------------------------------|
B|--------------------------------------------------------------------------|
G|------9-------------------------------------------------------------------|
D|------9-x8------3--------5---------x-x--x-x--x-x--x-x--x-x-x-x------------|
A|------7---------3-x8-----5-x8------x-x--x-x--x-x--x-x--x-x-x-x------------|
E|----------------1--------3---------x-x--x-x--x-x--x-x--x-x-x-x------------|

	CHORUS

e|--------------------------------------------------------------------------|
B|--------------------------------------------------------------------------|
G|------5------------------------------5-----3------------------------------|
D|------5-x8---5------7------3---------5-x8--3-x8----3-3-3-3-33-----5-------|
A|------3------5-x8---7-x8---3-x8------3-----1-------3-3-3-3-33-----5-x8----|
E|-------------3------5------1-----------------------1-1-1-1-11-----3-------|

e|--------------------------------------------------------------------------|
B|--------------------------------------------------------------------------|
G|-----5------------------------------5-----3-------------------------------|
D|-----5-x8---5------7------3---------5-x8--3-x8----3-3-3-3-33----5---------|
A|-----3------5-x8---7-x8---3-x8------3-----1-------3-3-3-3-33----5-x8------|
E|------------3------5------1-----------------------1-1-1-1-11----3---------|





	BRIDGE

e|---------------------------------------------------------------------------|
B|---------------------------------------------------------------------------|
G|----------------------7----------------------------------------------------|
D|-------7-------3------7-x4--------7-------3-------5------------------------|
A|-------7-x8----3-x4---5-----------7-x8----3-x4----5-x8---------------------|
E|-------5-------1------------------5-------1-------3------------------------|


	SOLO

e|-----12----10--------------------------------------------------------------|
B|-----------------12-13h-12-------------------------------------------------|
G|-------------------------------14--14--------------------------------------|
D|------------------------------------------------14--10-----7-10-7---5------|
A|---------------------------------------12--12------------------------------|
E|---------------------------------------------------------------------------|

e|---------------------------------------------------------------------------|
B|-----------------------------------------------------10-8------------------|
G|------5--5--5-----5--3-----3--5--3--2--------2-4-5-2-----------------------|
D|---------------5----------------------------------------------5------------|
A|--------------------------------------------------------------5-x4---------|
E|--------------------------------------------------------------3------------|

e|---------------------------------------------------------------------------|
B|---------------------------------------------------------------------------|
G|------5--------------------------------5-5-5---5-3---3-5-3-2~--------------|
D|------5-x8---5------7------3-----------------5----------------------5------|
A|------3------5-x8---7-x8---3-x8-------------------------------------5-x8---|
E|-------------3------5------1----------------------------------------3------|

e|---------------------------------------------------------------------------|
B|--------8---------------8------------------5-------------------------------|
G|-----5-----7--5------4-----5-5--4-4-----2-----5----------------------------|
D|--------------------------------------------------------3------------------|
A|-------------------------------------------------5------3-x8---------------|
E|--------------------------------------------------------1------------------|

e|---------------------------------------------------------------------------|
B|---------------------------------------------------------------------------|
G-------5------3-------------------------------------------------------------|
D|------5-x8---3-x8--------3--3--3--3-3-----5--------------------------------|
A|------3------1-----------3--3--3--3-3-----5-x8-----------------------------|
E|-------------------------1--1--1--1-1-----3--------------------------------|


	OUTRO

e|---------------------------------------------------------------------------|
B|---------------------------------------------------------------------------|
G|-------5----------------5----------------5---------------5-----------------|
D|----2-----5--2-------------2----------------5--2------------3--2-----------|
A|---------------------5--------5-------3------------------------------------|
E|------------------------------------------------------6--------------------| 
                                                                   X2 Fade Out