Demi Lovato - Trainwreck Text Guitar Tab

Learn the song with the online tablature player
Demi Lovato - Trainwreck

e|-----------------------------|
B|-----------------------------|
G|-----------------------------| 2x
D|--6--6\5--5\4--4\3---3/4-5/--|
A|--6--6\5--5\4--4\3---3/4-5/--|
E|--4--4\3--3\2--2\1---1/2-3/--|

e|--------------------|      /   |------------|
B|--------------------|      /   |--4---------|
G|--------------------| 3x   /   |----4~------| second guitar after
D|--6--6\5----4--4\3--|      /   |------------| first time
A|--6--6\5----4--4\3--|      /   |------------|
E|--4--4\3----2--2\1--|      /   |------------|

e|----------------|
B|----------------|
G|--6------9------|
D|--6------9------|
A|--4------7------|
E|----------------|

e|-----------|-----------|-----------|-----------|    |---------------------------------|
B|-----------|-----------|-----------|-----------|    |---------------------------------|
G|--4-4-4-4--|--8-8-8-8--|--9-9-9-9--|-----------| 2x |-----------------------6----9----|
D|--4-4-4-4--|--8-8-8-8--|--9-9-9-9--|--4-4-4-4--|    |--6----5----4--3--2----6----9----|
A|--2-2-2-2--|--6-6-6-6--|--7-7-7-7--|--4-4-4-4--|    |--6----5----4--3--2----4----7----|
E|-----------|-----------|-----------|--2-2-2-2--|    |--4----3----2--1--0--------------|

e|-----------------------------|
B|-----------------------------|
G|-----------------------------|
D|--6--6\5--5\4--4\3---3/4-5/--|
A|--6--6\5--5\4--4\3---3/4-5/--|
E|--4--4\3--3\2--2\1---1/2-3/--|

e|--------------------|    |----------------------------------|
B|--------------------|    |----------------------------------|
G|--------------------| 2x |----------------------------------|
D|--6--6\5----4--4\3--|    |--3/4-5/6--6\5---4--4\3---3/4-5/--|
A|--6--6\5----4--4\3--|    |--3/4-5/6--6\5---4--4\3---3/4-5/--|
E|--4--4\3----2--2\1--|    |--1/2-3/4--4\3---2--2\1---1/2-3/--|



e|--------------------------|
B|--------------------------|
G|--------------------------| 2x
D|--6-----5-----4-----3-----|
A|--6-----5-----4-----3-----|
E|--4-----3-----2-----1-----|

e|-----------------|-------------------|--------------------|
B|-----------------|-------------------|--------------------|
G|----------4-8----|----------4-8------|--6-----------------|
D|--2---4---4-8-2--|--2---4---4-8-6----|--6------2-2-2-2-4--|
A|--2---4---2-6-2--|--2---4---2-6-6----|--4------2-2-2-2-4--|
E|--0---2-------0--|--0---2-------4----|---------0-0-0-0-2--|

e|-----------|-----------|-----------|-----------|    |----------------------------------------|
B|-----------|-----------|-----------|-----------|    |----------------------------------------|
G|--4-4-4-4--|--8-8-8-8--|--9-9-9-9--|-----------| 2x |-----------------------6-6-6-6-9-9-9-9--|
D|--4-4-4-4--|--8-8-8-8--|--9-9-9-9--|--4-4-4-4--|    |--6----5----4--3--2----6-6-6-6-9-9-9-9--|
A|--2-2-2-2--|--6-6-6-6--|--7-7-7-7--|--4-4-4-4--|    |--6----5----4--3--2----4-4-4-4-7-7-7-7--|
E|-----------|-----------|-----------|--2-2-2-2--|    |--4----3----2--1--0---------------------|

e|-----------|-----------|-----------|-----------|-----------|-----------|-----------|-----------|
B|-----------|-----------|-----------|-----------|-----------|-----------|-----------|-----------|
G|--4-4-4-4--|--8-8-8-8--|--9-9-9-9--|-----------|--4-4-4-4--|--8-8-8-8--|--9-9-9-9--|-----------|
D|--4-4-4-4--|--8-8-8-8--|--9-9-9-9--|--4-4-4-4--|--4-4-4-4--|--8-8-8-8--|--9-9-9-9--|--4--------|
A|--2-2-2-2--|--6-6-6-6--|--7-7-7-7--|--4-4-4-4--|--2-2-2-2--|--6-6-6-6--|--7-7-7-7--|--4--------|
E|-----------|-----------|-----------|--2-2-2-2--|-----------|-----------|-----------|--2--------|

e|--------------------|    |-----------------------------------------------|
B|--------------------|    |-----------------------------------------------|
G|--4----8------------| 2x |-----------------------6----------------4------|
D|--4----8----2----4--|    |--6----5----4--3--2----6------2----(4)--4------|
A|--2----6----2----4--|    |--6----5----4--3--2----4------2----(4)--2------|
E|------------0----2--|    |--4----3----2--1--0-----------0----(2)---------|