Demi Lovato - U Got Nothin On Me Text Guitar Tab

Learn song with the online tabulature player
-------------------------------------------------------------------------------
			                    U Got Nothin’ On Me - Demi Lovato
-------------------------------------------------------------------------------
Tabbed by: xStrawberryKissx
Email: talitha@f2s.com		

Tuning: standard

	
	INTRO
	
e|---------------------------------------------------------------------------|
B|-------10-----8------------------------------------------------------------|
G|---------------------------------------------------------------------------|
D|--------------------------12-----9-----9--7-----5~-------------------------|
A|-------------------10------------------------------------------------------|
E|---------------------------------------------------------------------------|

e|---------------------------------------------------------------------------|
B|-------10-----8------------------------------------------------------------|
G|---------------------------------------------------------------------------|
D|--------------------------12-----9-----9--7-----5~-------------------------|
A|-------------------10------------------------------------------------------|
E|---------------------------------------------------------------------------|


	Verse ONE

e|---------------------------------------------------------------------------|
B|---------------------------------------------------------------------------|
G|-------------------------------------7-------------7------\----------------|
D|-------5-------7-----------7----5----7------5------7-x5---\----------------|
A|-------5-x24---7-x8--------7----5----5------5-x8---5------\----------------|
E|-------3-------5-----------5----3-----------3------------------------------|

e|---------------------------------------------------------------------------|
B|---------------------------------------------------------------------------|
G|-------------------------------------7-------------7------\----------------|
D|-------5-------7-----------7----5----7------5------7-x5---\----------------|
A|-------5-x24---7-x8--------7----5----5------5-x8---5------\----------------|
E|-------3-------5-----------5----3-----------3------------------------------|


	CHORUS

e|---------------------------------------------------------------------------|
B|---------------------------------------------------------------------------|
G|-------5---------------7------------5---------------7----------------------|
D|-------5-x4----5-------7-x8---------5-x4----5-------7-x8-------------------|
A|-------3-------5-x4----5------------3-------5-x4----5----------------------|
E|---------------3----------------------------3------------------------------|

e|---------------------------------------------------------------------------|
B|---------------------------------------------------------------------------|
G|-------5---------------7--------------------5-----5------------------------|
D|-------5-x4----5-------7-x8-----------------5-----5------------------------|
A|-------3-------5-x4----5--------------------3-----3------------------------|
E|---------------3-----------------------------------------------------------|

e|---------------------------------------------------------------------------|
B|-------10-----8------------------------------------------------------------|
G|---------------------------------------------------------------------------|
D|--------------------------12-----9-----9--7-----5~-------------------------|
A|-------------------10------------------------------------------------------|
E|---------------------------------------------------------------------------|



	Verse TWO

e|---------------------------------------------------------------------------|
B|---------------------------------------------------------------------------|
G|-------------------------------------7-------------7------\----------------|
D|-------5-------7-----------7----5----7------5------7-x5---\----------------|
A|-------5-x24---7-x8--------7----5----5------5-x8---5------\----------------|
E|-------3-------5-----------5----3-----------3------------------------------|

e|---------------------------------------------------------------------------|
B|---------------------------------------------------------------------------|
G|-------------------------------------7-------------7------\----------------|
D|-------5-------7-----------7----5----7------5------7-x5---\----------------|
A|-------5-x24---7-x8--------7----5----5------5-x8---5------\----------------|
E|-------3-------5-----------5----3-----------3------------------------------|


	CHORUS

e|---------------------------------------------------------------------------|
B|---------------------------------------------------------------------------|
G|-------5---------------7------------5---------------7----------------------|
D|-------5-x4----5-------7-x8---------5-x4----5-------7-x8-------------------|
A|-------3-------5-x4----5------------3-------5-x4----5----------------------|
E|---------------3----------------------------3------------------------------|

e|---------------------------------------------------------------------------|
B|---------------------------------------------------------------------------|
G|-------5---------------7--------------------5------------------------------|
D|-------5-x4----5-------7-x8-----------------5-x8---------------------------|
A|-------3-------5-x4----5--------------------3------------------------------|
E|---------------3-----------------------------------------------------------|




	Bridge	

e|---------------------------------------------------------------------------|
B|---------------------------------------------------------------------------|
G|------------------------7-------------------------------7------------------|
D|--------2-------5-------7-x8------------2-------5-------7-x8---------------|
A|--------2-x8----5-x8----5---------------2-x8----5-x8----5------------------|
E|----------------3-------------------------------3--------------------------|

e|---------------------------------------------------------------------------|
B|---------------------------------------------------------------------------|
G|----------------5--------/--------------------------------------x-x-x-x----|
D|--------7-------5-x8-----/--------------------------------------x-x-x-x----|
A|--------7-x8----3--------/--------------------------------------x-x-x-x----|
E|--------5-------------------------------------------------------x-x-x-x----|

e|---------------------------------------------------------------------------|
B|---------------------------------------------------------------------------|
G|-------5---------------7------------5---------------7----------------------|
D|-------5-x4----5-------7-x8---------5-x8----5-------7-x4-------------------|
A|-------3-------5-x4----5------------3-------5-x4----5----------------------|
E|---------------3----------------------------3------------------------------|



	CHORUS


e|---------------------------------------------------------------------------|
B|---------------------------------------------------------------------------|
G|-------5---------------7------------5---------------7----------------------|
D|-------5-x4----5-------7-x8---------5-x4----5-------7-x8-------------------|
A|-------3-------5-x4----5------------3-------5-x4----5----------------------|
E|---------------3----------------------------3------------------------------|

e|---------------------------------------------------------------------------|
B|---------------------------------------------------------------------------|
G|-------5---------------7--------------------5-----5------------------------|
D|-------5-x4----5-------7-x8-----------------5-----5------------------------|
A|-------3-------5-x4----5--------------------3-----3------------------------|
E|---------------3-----------------------------------------------------------|


	Outro

e|---------------------------------------------------------------------------|
B|-------10-----8------------------------------------------------------------|
G|---------------------------------------------------------------------------|
D|--------------------------12-----9-----9--7-----5~-------------------------|
A|-------------------10------------------------------------------------------|
E|---------------------------------------------------------------------------|

e|---------------------------------------------------------------------------|
B|-------10-----8------------------------------------------------------------|
G|---------------------------------------------------------------------------|
D|--------------------7-----5~-----------------------------------------------|
A|---------------------------------------------------------------------------|
E|---------------------------------------------------------------------------|


| /  slide up
| \  slide down
| h  hammer-on
| p  pull-off
| ~  vibrato
| +  harmonic
| x  Mute note
===============================================================================