Demi Lovato - We Rock Text Guitar Tab

Learn song with the online tabulature player
-------------------------------------------------------------------------------
                         We Rock - Demi Lovato and Joe Jonas (Camp Rock Cast)
-------------------------------------------------------------------------------
Tabbed by:Craig McLaughlin
Email:

Tuning:Standard

 Verses (Come as you are...)
e|---------------------------------------------------------------------------|
B|---------------------------------------------------------------------------|
G|----6----6----4------------------------------------------------------------|
D|----6----6----4----4-------------------------------------------------------|
A|----4----4----2----4-------------------------------------------------------|
E|-------------------2-------------------------------------------------------|(x2)

  Pre-Chorus (All that you need...)
e|---------------------------------------------------------------------------|
B|---------------------------------------------------------------------------|
G|----6----4-----------------------6----4----11------------------------------|
D|----6----4----4----7-------------6----4----11---6-------6------------------|
A|----4----2----4----7-------------4----2----9----6-------6------------------|
E|--------------2----5----------------------------4-------4------------------|

  Choruses (Raise you hands up...)
e|-------------------------|     |----------------------------------------|
B|-------------------------|     |----------------------------------------|
G|---------11---6----------|     |-8----11--------------------------------|
D|----8----11---6----6-----|     |-8----11--------------------------------|
A|----8----9----4----6-----|     |-6----9---------------------------------|
E|----6--------------4-----|(x5) |----------------------------------------|

  Bridge
e|---------------------------------------------------------------------------|
B|--2------------------------------------------------------------------------|
G|--3----6---------8---------------------------------------------------------|
D|--3----6----6----8---------------------------------------------------------|
A|--1----4----6----6---------------------------------------------------------|
E|------------4--------------------------------------------------------------|guitar 1

e|-------------------|    |----------------------------------------|
B|-------------------|    |----------------------------------------|
G|--------------10---|    |---15-----------------------------------|
D|--8--/10-/11-------|    |----------------------------------------|
A|--------------8----|    |---13---play 16 timesfast---------------|
E|--6--/8--/9--------|(x3)|----------------------------------------|guitar 2




| /  slide up
| \  slide down
| h  hammer-on
| p  pull-off
| ~  vibrato
| +  harmonic
| x  Mute note
===============================================================================