Demonlord - Still Alive Text Guitar Tab

Learn song with the online tabulature player
-----------------------------------------------------------------------------
                             Still Alive - Demonlord
-----------------------------------------------------------------------------
Tabbed by:Abed el rahman baayoun
Email:saharienrebel@hotmail.com

Tuning:standard e tuning

this song is played on more than one guitar so intro must be synchronized both at the same time 

intro:[acoustic guitars}

guitar 1 play this part over and over:

e|----------------------------------------------------------|
B|----------------------------------------------------------|
G|-4------3-----6-----4-----3\4-4-----3-----0-----0---------|
D|---6------6-----6-----6---------6-----6-----6-----6-----6-|
A|------6-----6-----6-----6---------6-----6-----6-----6-----|
E|----------------------------------------------------------|

guitar 2 play this: 

e|----------------------------------------------------------|
B|----------------------------------------------------------|
G|-4------3-----6-----4-----3\4-4-----3-----0-----0-1-------|
D|----------------------------------------------------------|
A|----------------------------------------------------------|
E|----------------------------------------------------------|

e|----------------------------------------------------------|
B|-----------------------------------4-5-4------------------|
G|-4------3-----6-----4-----3\4--4-6-------6-4-3-4-3--------|
D|----------------------------------------------------------|
A|----------------------------------------------------------|
E|----------------------------------------------------------|

demonlord official website is http://www.demonlord.hu/

| /  slide up
| \  slide down
| h  hammer-on
| p  pull-off
| ~  vibrato
| +  harmonic
| x  Mute note
===============================================================================