Dennis Leary - Asshole Text Guitar Tab

Learn song with the online tabulature player
-------------------------------------------------------------------------------
                           ASSHOLE - Dennis Leary
-------------------------------------------------------------------------------
Tabbed by: David Bierhaus
Email: dbierhaus01@yahoo.com

Tuning: Standard E-B-G-D-A-E

    Main Part - Repeat Until Bridge
e|-2---2-2-3-3-3---3-3-3-3-3---3-3-3-3-3---3-3-3-3--------------|
B|-3---3-3-3-3-3---3-3-3-3-3---3-3-3-3-3---3-3-3-3--------------|
G|-2---2-2-2-2-0---0-0-0-0-0---0-0-0-0-0---0-0-0-0--------------|
D|-0---0-0-0-0-0---0-0-0-0-0---0-0-0-0-0---0-0-0-0--------------|
A|-0---0-0-0-0-3---3-3-3-3-2---2-2-2-2-1---1-1-1-1--------------|
E|--------------------------------------------------------------|

     Bridge
e|-----------------------------------------------------|
B|-5---------------------------------------------------|
G|-4--------------------2------------------------------|
D|-2--------------------2------------------------------|
A|----------------------0------------------------------|
E|-----------------------------------------------------|
   Maybe I shouldn't be singing this song...
   Ranting and raving and carrying on...
   Maybe they're right when they tell me I'm wrong...

e|----------------------------|
B|----------------------------|
G|-2-2-2----------------------|
D|-2-2-2-5-5-5-4-4-2-2-2------|
A|-0-0-0-5-5-5-4-4-2-2-2------|
E|-------3-3-3-2-2-0-0-0------|
                   Nahh!


Then back to Main Part for the rest of the song.