Depeche Mode - Corrupt Text Guitar Tab

Learn song with the online tabulature player
-------------------------------------------------------------------------------
                             Corrupt - Depeche Mode
-------------------------------------------------------------------------------
Tabbed by: Myself
Email: misuerdomino@yahoo.com

Tuning: Drop D

The final track off of Sounds of the Universe.

Verse

These are the implied chords.

       Dm    Bb7    Gm

e|------1-----1------3-----------------------------------------------------|
B|------3-----3------3-----------------------------------------------------|
G|------2-----1------3-----------------------------------------------------|
D|------0-----3------5-----------------------------------------------------|
A|------0-----1------5-----------------------------------------------------|
D|------0------------x-----------------------------------------------------|


Synth Bass Riff

This is played during the verse by the synth bass.

e|----------------------------------------------------------------------|
B|----------------------------------------------------------------------|
G|----------------------------------------------------------------------|
D|----------------------------------------------------------------------|
A|-----8-5-5-5-5-5-3-5-5-5-5-5------------------------------------------|
D|----------------------------------------------------------------------|

Chorus

The two measures are quarter notes, while the second two measures are triplet eighths.

  You'd be        Calling      Out           My           Name
                                               
e|------------|------------|------------|------------|--------------------|
B|------------|------------|------------|------------|--------------------|
G|------------|------------|------------|------------|--------------------|
D|------------|------------|------------|------------|--------------------|
A|-----5------|-----5------|-----5------|-----5------|--------------------|
D|-----5------|-----3------|-----2------|-----1------|-x-0-0-x-0-x-x-/15~-|

Alternate Verse

This is played during the verse after the second chorus. It's also played by the guitar 
the outro.

     D5      (D5)   F5     Bb5   A5      G5   F5      D5
e|-------|--------------|------------|------------|-------|
B|-------|--------------|------------|------------|-------|
G|-------|--------------|------------|------------|-------|
D|---0---|---(0)----3---|---8----7---|---5----3---|---0---|
A|---0---|---(0)----3---|---8----7---|---5----3---|---0---|
D|---0---|---(0)----3---|---8----7---|---5----3---|---0---|