Deportivo - 1000 Moi Meme Text Guitar Tab

Learn song with the online tabulature player
-------------------------------------------------------------------------------
                          1000 Moi-Même - Deportivo
-------------------------------------------------------------------------------

Tabbed By : superfranki

Tuning: Standard

Intro:
G |---------------------------------|
D |---------------------------------|
A |-----------------3-3-3-3-5-5-5-5-|
E |-3-3-3-3-1-1-1-1-----------------|

Verse 1:
G |----7-5--------|
D |-5------7--8-7-| x4
A |---------------|
E |---------------|

G |-------------------------------------|
D |-------------------------------------| x2
A |---------8-8-8-8-10-10-10-10-5-5-5-5-|
E |-6-6-6-6-----------------------------|

G |----7-5--------|
D |-5------7--8-7-| x4
A |---------------|
E |---------------|

G |-------------------------------------|
D |-------------------------------------| x2
A |---------8-8-8-8-10-10-10-10-5-5-5-5-|
E |-6-6-6-6-----------------------------|

Chorus 1:
G |---------------------------------|
D |---------------------4---5-5-----| x3
A |-6-6-6-6---------5-5---5-----8-8-|
E |---------6-6-6-6-----------------|

G |-------------------------------------------------|
D |-------------------------------------------------|
A |---------------------------------3-0-3-0-5-0-5-0-|
E |-6-6-6-6-1-1-1-1-3-0-3-0-1-0-1-0-----------------|

Verse 2:
G |----7-5--------|
D |-5------7--8-7-| x2
A |---------------|
E |---------------|

G |----7--5--------7--5----|
D |-5--------7--5--------7-|
A |------------------------|
E |------------------------|

Chorus 2 / Ending:
G |---------------------------------|
D |---------------------4---5-5-----| x3
A |-6-6-6-6---------5-5---5-----8-8-|
E |---------6-6-6-6-----------------|

G |-----------------|
D |-----------------|
A |-----------------|
E |-6-6-6-6-1-1-1-1-|

G |---------------------------------|
D |---------------------------------| x2
A |-----------------3-0-3-0-5-0-5-0-|
E |-3-0-3-0-1-0-1-0-----------------|

G |-------------------------------------|
D |-------------------------------------| x2
A |---------8-8-8-8-10-10-10-10-5-5-5-5-|
E |-6-6-6-6-----------------------------|

G |---------------------------------|
D |---------------------------------| x4
A |-----------------3-3-3-3-5-5-5-5-|
E |-3-3-3-3-1-1-1-1-----------------|

G |----|
D |----|
A |----|
E |-3~-|


| /  slide up 
| \  slide down
| h  hammer-on
| p  pull-off
| ~  vibrato
| +  harmonic
| x  Mute note
===============================================================================