Descendents - Cool To Be You Text Guitar Tab

Learn song with the online tabulature player
[VERSE]
|--------------------------|
|--------------------------|
|-------5-----5--7---------|
|-7--5--5--5--5--7---------|
|-7--5--3--5--3--5---------|
|-5--3-----3---------------|

|--------------------------|
|--------------------------|
|------5-------------------|
|-7----5----5----7---------|
|-7----3----5----7---------|
|-5---------3----5---------|

|--------------------------|
|--------------------------|
|-------5-----5--7---------|
|-7--5--5--5--5--7---------|
|-7--5--3--5--3--5---------|
|-5--3-----3---------------|



[CHORUS]
|-------------------------|
|-------------------------|
|-----9-------------------|
|-7---9---9---11----------|
|-7---7---9---11----------|
|-5-------7---9-----------|


|-------------------------|
|-------------------------|
|-----9-------------------|
|-7---9---9---11----------|
|-7---7---9---11----------|
|-5-------7---9-----------|