Desert Sessions - I Wanna Make It Wit Chu Text Guitar Tab

Learn song with the online tabulature player
-------------------------------------------------------------------------------
                             I wanna make it wit chu - Desert Sessions
-------------------------------------------------------------------------------
Tabbed by: Johan "Buck" Norén
Email: johan.noren@gmail.com

Tuning: E A D G B e

There are three chords in the entire song. The chords are

C A7 E E

I think there is one clean guitar just pumping the
power chord in the background like so:

e |-----------------------------------------------------|
B |-----------------------------------------------------|
G |--5-5-5-5-5-5-5-5------------------------------------|
D |--5-5-5-5-5-5-5-5--7-7-7-7-7-7-7-7--2-2-2-2-2-2-2-2--|
A |--3-3-3-3-3-3-3-3--7-7-7-7-7-7-7-7--2-2-2-2-2-2-2-2--|
E |-------------------5-5-5-5-5-5-5-5--0-0-0-0-0-0-0-0--|

The "lead" guitar plays the same chords but with some licks, like so:

     C                   A7                 E x2
e |-------------------|--x-x----x----x---|--------------------|
B |-------------------|--8-8----8----8---|--------------------|
G |-----5----5h7p5----|--6-6----6----6---|--------------------|
D |-----5----------5--|--x-x----x----x---|--9-9-9-9-9-9-9-9---|
A |--------7----------|--7-7----7----7---|--7-7-7-7-7-7-7-7---|
E |--8----------------|--5-5----5----5---|--0-0-0-0-0-0-0-0---|
                                           {  palm mute    }


| /  slide up
| \  slide down
| h  hammer-on
| p  pull-off
| ~  vibrato
| +  harmonic
| x  Mute note
===============================================================================