Desmond Dekker - Fu Man Chu Text Guitar Tab

Learn song with the online tabulature player
Chords used:

  G#m   C#m   D#m
e--4-----4-----6---|
B--4-----5-----7---|
G--4-----6-----8---|
D--6-----6-----8---|
A-(6)---(4)---(6)--|
E-(4)--------------|

The song begins with the keyboard part which I have transcribed to guitar tab.  You hear 
first 4 notes before the guitar chords come in.

  +   4   +     C#m
e------------|-------------------------------|
B---------4--|-------------------------------|
G-----4------|.-6--6-4-6--6-4-6--4-----4--6--|
D-6-6--------|.---------------------6--------|
A------------|-------------------------------|
E------------|-------------------------------|

  D#m                G#m
e------------------|---------------------|-----------------------|
B-4----------4-5-4-|---------------------|-------------------4---|
G------------------|-6-4-----------------|----------------4-----.|
D------------------|-----6-4-6--6--6--6--|-6--6--6--6-6-6-------.|
A------------------|---------------------|-----------------------|
E------------------|---------------------|-----------------------|

Lyric/Chord pattern:
           C#m          D#m
It make no sense at all
                        G#m
to say what you used to do


I like to slide into the chords from a fret below (Gm/G#m, Cm/C#m, Dm/D#m), but that 
how they do it in the original recording.  Solos should be done in the key of G#m.