Desperation Band - Light Up The World Text Guitar Tab

Learn song with the online tabulature player
Light Up the World
Desperation Band


Small break (1:21-1:33)
|------------------------------------------s12-14-12-11---|
|--------9s10-----5--7-5-4------------9s10-------------12-|
|----7-------------------------5---7----------------------|
|---------------------------------------------------------|

Verse 2
|----------------|
|----------------|
|----2s3---------|
|-0-------3—3s2--|


The rest is not that hard to figure out...Hope you enjoy and God Bless!!
[DLee}