Desperation Band - Promises Text Guitar Tab

Learn song with the online tabulature player
I write this tab to improve my playing skills and for my own reference, not to tell
everyone that this is the right tab... the tab may or may not have mistakes but feel free to
tell me if I am doing wrong on any part of the tab.



PROMISES

DESPERATION BAND



Chorus part

                  Ohhh...                       Ohhh...

G--------------------------------------------------------------|
D---------------4-4-5-5-7-7------------------------------------|
A------------5--------------------------4-4-5-5-7-7------------|
E--------------------------------------5-----------------------|

                  Ohhh...                       I can't forget about it...

G---------------------------------------------------------|
D---------------------------------------------------------|
A---------------5-5-7-7-5-5-----------2---2-3-3-5-5-------|
E-------------7-------------------------3-----------------|



Before Bridge or Before Outro (Like an intro before the Bridge/Outro)

G---------------------------------------------------|
D------------4------5-5-7-7-5-4---------------------|
A------5-5-5---5~-----------------------------------|
E---------------------------------------------------|

Other parts are just simple basslines perhaps (like in verse and some parts of chorus)...

I think the written basslines are the ones that are really defined in the song...