Destinys Child - Say My Name Text Guitar Tab

Learn song with the online tabulature player
Destiny's Child - Say My Name

intro
G-------8---7---5-------1-----------------3----5---------
D---0---------------------------3------------------------
A--------------------------------------------------------
E--------------------------------------------------------

then through each verse play this and break at the chorus

G---5-------1--------------3---5-------------------------
D-------------------3------------------------------------
A--------------------------------------------------------
E--------------------------------------------------------

during the chorus play this

G---5-------1--------------3---4-------------------------
D-------------------3------------------------------------
A--------------------------------------------------------
E--------------------------------------------------------



Tabbed by Jurimi Knoxville