Destroyer - Painter In Your Pocket Text Guitar Tab

Learn song with the online tabulature player
-------------------------------------------------------------------------------
                    Painter In Your Pocket - Destroyer
-------------------------------------------------------------------------------
Tabbed by: gdg
Email: gdg1983@gmail.com

Tuning: standard

e|------9----9----9-12-9-----------------------------------------------------|
B|-------10---10-----------------9-10-12-14-12--14-12s14---------------------|
G|---------11---11-------------11--------------------------------------------|
D|---------------------------------------------------------------------------|
A|---------------------------------------------------------------------------|
E|---------------------------------------------------------------------------|

e|---------------------------------------------------------------------------|
B|--/17---14-12-14------9-10-12-14-12--14-12s14------------------------------|
G|-------------------11------------------------------------------------------|
D|---------------------------------------------------------------------------|
A|---------------------------------------------------------------------------|
E|---------------------------------------------------------------------------|