Detonautas Roque Clube - Olhos Certos Text Guitar Tab

Learn song with the online tabulature player
Intro

G|---------|
D|---------|
A|4~~~0~~~~|
E|---------|

Tento te encontrar

G|----6/8-6-4-----2/4-2-0--|
D|---6-----------2---------|
A|4-4---------0-0----------|
E|-------------------------|

Tanto pra dizer

G|----6/8-6-4--------------|
D|---6------------4/6-4-2--|
A|4-4------------4---------|
E|------------2-2----------|

Meu amor... Tudo bem

G|----6/8-6-4-----2/4-2-0--|
D|---6-----------2---------|
A|4-4---------0-0----------|
E|-------------------------|

entra a guitarra... Daqui até o refrão:

G|---------|
D|---------|
A|4~~~0~~~~|
E|---------|


Refrão

G|------------------------------------|
D|------------------------------------|
A|4--4--4-2-0--0-2-0------------------|
E|--------------------2--2--2--5--5--5|


Se não for...

G|-----------------------|-----------------------------|
D|-----------------------|-----------------------------|
A|-----0-2--2--4--4------|-----0-2--2--0--0-12-12-12-12|
E|0--0---------------5--5|0--0-------------------------|

Vocalização

G|-----------------------|
D|-----------------------|
A|4--4--4-2--2--2-0--0--0|
E|-----------------------|


Refrão

G|------------------------------------|
D|------------------------------------|
A|4--4--4-2-0--0-2-0------------------|
E|--------------------2--2--2--5--5--5|

Final

G|------------------------------------|
D|------------------------------------|
A|4--4-2--2-0--0----------------------|
E|------------------------------------|