Deus - Sister Dew Text Guitar Tab

Learn song with the online tabulature player
standard tuning

intro:

-------------------------------------|
----3--------------------------------|
-3-----3-----------0-----------------|
-------------------------0-----------|
-------------------------------------|
-------------------------------------|

-------------------------------------|
------3------------------------------|
--3------3---------------------------|
-----------------4(ring)-------------|
-------------------------------------|
-------------------------------------|

Then the chords:

Em      G       Em        G...


chorus:

A        F        A          F


You have to listen to the song to find out the strumming of the chords
and enjoy!!!!!!!!!!!!