Devendra Banhart - I Feel Just Like A Child Text Guitar Tab

Learn song with the online tabulature player
--------------------------------------------------------------------------  
I Feel Just Like a Child - Devendra Banhart----------------
Tabbed by: Brett
Email: bobthinkshescool@hotmail.com

Tuning: Standard


Intro goes as such

e|-------------------------------------------------------------------------|
B|-------------------------------------------------------------------------|
G|------0-0-0-0-0-0---------0-0-0-0-0-0------------------------------------|
D|--0h2-----------------0h2------------------------------------------------|
A|-------------------------------------------------------------------------|
E|-------------------------------------------------------------------------|

and then:


e|---3--------------------5----------------------7-------------------------|
B|---3--------------------5----------------------7-------------------------|
G|---4--------------------5----------------------7-------------------------|
D|---5--------------------5----------------------7-------------------------|
A|---5--------------------3----------------------5-------------------------|
E|---3---------------------------------------------------------------------|
  "Some people try...  "Well I guess they..." "They think I know..."

e|---5-----------------------3---------------------------------------------|
B|---5-----------------------3---------------------------------------------|
G|---5-----------------------4---------------------------------------------|
D|---5-----------------------5---------------------------------------------|
A|---3-----------------------5---------------------------------------------|
E|---------------------------3---------------------------------------------|
  "But that's just..."   "I'm a child"

and so on


| /  slide up
| \  slide down
| h  hammer-on
| p  pull-off
| ~  vibrato
| +  harmonic
| x  Mute note
===============================================================================