Devin Townsend - Ih-ah Text Guitar Tab

Learn song with the online tabulature player
Tabbed By: Ignatius Kai
Tuning: Drop D (Clean)

Main chorus / intro riff
E|-----0-------0-------0-------0-------0-------0-------------------|
B|---1---1---1---1-----------------------------------0-2-0---0-2-0-|
G|-2-------2---------5---5---5---5---5---5---5---5-0-------0-------|
D|-----------------5-------5-------3-------3-----------------------|
A|-----------------------------------------------------------------|
D|-----------------------------------------------------------------|

Palm mute for this next riff
Album recorded version uses slight distortion
E|----------------------------------|
B|----------------------------------|
G|----------------------------------|
D|-2--2--2-3--3--3-5--5--5----------|
A|-0000000033333333333333335--5--5--|
D|-------------------------55555555-|