Devo - Be Stiff Text Guitar Tab

Learn song with the online tabulature player
Devo - Be Stiff

1-2-Be-Stiff!

Riff 1
G----------------------------------------------------------|
D-------7-7-6---------7-7-6-------3-3-2---------5-5-4------|
A-7--7----------7--7---------3-3--------3--5-5--------5-0--|
E----------------------------------------------------------|

G----------------------------------------------------------------------------------------|
D-------7-7-6---------7-7-6--------------------------------------------------------------|
A-7--7----------7--7------------3-3-3-3-3-3--5-5-5-5-5-5--7-7-7-7-7-7-10-10-10-10-10-10--|
E----------------------------------------------------------------------------------------|

G------------------------------------|
D------------------------------------|
A------------------------------------|
E-5-5-5-5-5-5-5-5-5-5-5-5-5-5-5-5----|

Repeat that once, then follow it with this. This is the bass fill during the guitar
solo

G-----9------------------9----------------5-3-----------7-5--|
D--------------------------------------2------5------4-------|
A-7-7---7---7-7------7-7---7---7-7---3-----------5-0---------|
E------------------------------------------------------------|

G------------------------------------------------------------------------------|
D---2-3-4-5---4-5-6-7---6-7-8-9----9-10-11-12----------------------------------|
A-3---------5---------7---------10---------------------------------------------|
E----------------------------------------------5-5-5-5-5-5-5-5-5-5-5-5-5-5-5-5-|

Repeat riff 1 again and follow it with this

G----------------------------------------------------------------------------|
D----------------------------------------------------------------------------|
A---------------------------------7-7-7-7-7-7-7-7-10-10-10-10-10-10-10-10----|
E-5-5-5-5-5-5-5-5-5-5-5-5-5-5-5-5--------------------------------------------|


G-------------------------------------------------------------------|
D----------------------7-7-5-5--------------------------------7-7-6-|
A------------------------------7-7-------4-4-5-5-6-6--7---7---------|
E-7-7-7-7-7-7-7-7--5-5---------------5-5----------------------------|

And that's it