Devotchka - You Love Me Text Guitar Tab

Learn song with the online tabulature player
From the album "How It Ends"
chad.s.kelly@accenture.com

First tab ... gotta support this Denver band!

Standard Tuning

Guitar 1:
     A                                 
e----5--5--5--5--5--5--5--5--|
b----5--5--5--5--5--5--5--5--|
g----6--6--6--6--6--6--6--6--|
d----7--7--7--7--7--7--7--7--| x4 Intro
a----7--7--7--7--7--7--7--7--|
E---5-----------0------------|


     E                                 
e----0-0-0-0-----|
b----0-0-0-0-----|
g----1-1-1-1-----|
d----2-2-2-2-----| x2
a----2-2-2-2-----|
E---0------------|

Guitar 2:
                                   
e--------------------------------------------------------------------|
b--------------------------------------------------------------------|
g--------------------------------------------------------------------|
d--------------------------------------------------------------------|
a---0-2-4--4-5-4-2-0-------------------------------------------------|
E--------------------4-----------------------------------------------|


Rock!