Dewa - Larut Text Guitar Tab

Learn song with the online tabulature player
tabbed by alya 
dewa-larut
solo guitar at 2:01
 E					    Cm
E---------------------------------------------------------------I
B---------------------------------------------------------------I
G---------------------------------------------------------------I
D---------------------------------------------------------------I
A-7/11^----9—7/11^----9—7/11-9-7/11^--9^---/7p6h7p6h7p6h7p6-----I
E-----------------------------------------------------------7/9-I

	A					     E
E-------------------------------------I--------------------I
B-------------------------------------I--------------------I
G----------9------11b13-11—9--9-------I-----9-11-9-11b13^^-I
D-7/9--11-----11------------------7^^-I-/9-----------------I
A-------------------------------------I--------------------I
E-------------------------------------I--------------------I

   E
E--------9---------------9--------11b13—14b15^--I
B----9-----h12p9-----9-----h12p9----------------I
G-11b13-----------11b13-------------------------I
D-----------------------------------------------I
A-----------------------------------------------I
E-----------------------------------------------I
]
contact my email if u wanted indonesian song and you must send 
(see "atach file" at yohoo) that mp3 to me via email!
hd03112003@yahoo.com
stop war! stop the world!