Dexter Freebish - Twilight Text Guitar Tab

Learn song with the online tabulature player
E--3----------------------3---------------------------------8--8---8--10--12-|
B----5-3-1-3-1--------------5-3-1-3-1--3h5-8-10----12-10-8-------------------|
G---------------4h5p4-2------------------------------------------------------|
D----------------------------------------------------------------------------|
A----------------------------------------------------------------------------|
E----------------------------------------------------------------------------|

E-10----10--8----8-10-12--17---17-15-12-10-12--12----------------------------|
B----13-------10-------------------------------------------------------------|
G----------------------------------------------------------------------------|
D----------------------------------------------------------------------------|
A----------------------------------------------------------------------------|
E----------------------------------------------------------------------------|