Dexy's Midnight Runners - Geno Text Guitar Tab

Learn song with the online tabulature player
This is possibly my favorite song ever, and is far better than "Come on Eileen", 
yet not as famous. It's a fairly simple song, just listen to the bass line closely 
to get the rhythm. 

Intro
G|---------------------------------|
D|---------------------------------|                            
A|----16-16-16-16-16-16-16-16/4----|                            
E|---------------------------------|                            

Verse Pt 1 (With the brass)
G|--------6------6-----4------4---|             
D|--------------------------------|             
A|----44-----4-----22-----2-------|             
E|--------------------------------|

Verse Pt 2 (No brass instruments playing)
G|-------------------------|
D|-------------------------|
A|44-4-4-4-4-4-22-2-2-2-2-2|
E|-------------------------|             

Pre Chorus
G|----------------------------|                                 
D|---------1--2--4--4--4--4---| 
A|--2--4----------------------|
E|----------------------------|

Chorus
G|---------------------------------------------2-4---------------------|
D|---------0-2-4---------------------------2-4-----------------2---2-4-|
A|--00-2-4-----------------0-2-4------22-4--------------4-4--4---4-----|
E|------------------00-2-4---------------------------------------------|

Post Chorus
G|66666666--------|
D|----------------|
A|--------44444444|
E|----------------|

Brass Solo
G|------------------------------------------|
D|------------------------------------------|
A|4---------------9-99-99-7-77-4/11\4-4/11\4|
E|--5-55-5-7-77-7---------------------------|

G|------------------------------------|
D|----------------------141414-161616\|
A|---------------999777---------------|
E|5-55-5-7-77-7-----------------------|

G|--------------66666666----------|
D|--------------------------------|
A|-----------------------444444444|
E|5-55-5-7-77-7-------------------|

Verse till fade out