Dicta License - Tuloy Ang Ikot Ng Mundo Text Guitar Tab

Learn song with the online tabulature player
-------------------------------------------------------------------------------
		Tuloy ang ikot ng mundo - Dicta License
-------------------------------------------------------------------------------

Tabbed By : Galera, Mark JEsson
e-mail: magnificoboy_00@yahoo.com

Intro part :

G|---------------------------------------|
D|----4-2-4-2-0--------------------------|
A|--5-----------4-5-5/7-5-4-0------------|
E|----------------------------2222-3333--|

G|---------------------------------------|
D|----4-2-4-2-0--------------------------|
A|--5-----------5-4-5-7-5-0--------------|
E|----------------------------2222-3333--|

Verse:

G|-----------------------------------------------|
D|----4-2-4-2-0----------------------------------|
A|--5-----------4-5-5/7-5-4-0--------------------|
E|----------------------------22222222-33333333--|

G|-----------------------------------------------|
D|----4-2-4-2-0----------------------------------|
A|--5-----------5-4-5-7-5-0----------------------|
E|----------------------------22222222-33333333--|

Pre-Chorus:

G|-----------------------------------------------|
D|-----------------------------------------------|
A|--5555555555555555-----------------------------| 2x
E|--------------------22222222--33333333---------|

Chorus:

G|-----------------------------------------------|
D|-----------------------------------------------|
A|--5555555555555555-----------------------------| 
E|--------------------22222222--33333333---------|

G|-----------------------------------------------|
D|-----------------------------------------------|
A|--5555555555555555-----------------------------| 
E|--------------------22222222--3----------------|

Verse:
Pre-chorus:
Chorus:

Bridge:

G|----------------------------------------|
D|----------------------------------------|
A|----------------------------------------|
E|--55555555--77777777--3333333333333333--|

G|---------------------------------------------|
D|---------------------------------------------|
A|---------------------------------------------|
E|--55555555--7777777--33-55-77-9--33-55-77-9--|

G|----------------------------------------|
D|----------------------------------------|
A|----------------------------------------|
E|--55555555--77777777--3333333333333333--|
Di tulad sa tindahan.....

G|---------------------------------------------|
D|---------------------------------------------|
A|---------------------------------------------|
E|--55555555--7777777--33-55-77-9--33-55-77-9--|

Adlib: ( listen to the timing)

G|------------------------------------------------|
D|--solo lead--------------solo lead--------------|
A|------------------------------------------------|
E|-------------2222--3333-------------2222--3333--|

G|------------------------------------------------------------|
D|--solo lead--------------solo lead--------------------------|
A|------------------------------------------------------------|
E|-------------2222--3333-------------2222--3333--2222--3333--|

G|-------------------------------------------------------|
D|-------------------------------------------------------|
A|-------------------------------------------------------|
E|--22-3-2-3-2-----22-3-2-3-2-----22-3-2-3-2--555555555--|

Repeat Chorus: ( listen to the end )

G|-----|
D|-----|
A|-----|
E|--3--|