Die Aerzte - Ein Lied Fr Dich Text Guitar Tab

Learn song with the online tabulature player
-------------------------------------------------------------------------------
                             Ein Lied für dich - Die Ärzte
-------------------------------------------------------------------------------

Tabbed by: salatschleuder
Email:gartensalat93@googlemail.com

Tuning: EADGBE (Standard Tuning)


=intro (played by bass)=



E---------------------------------------------------------------------------  |
B---------------------------------------------------------------------------  |
G---------------------------------------------------------------------------  |
D-4-----------------2-----------------1-------------------------------------  |
A----2--22-2--22-22----2--22-2--22-22----2--22-2--22-22--4--0--00-0--00-00--  |
E---------------------------------------------------------------------------  |

 
 to "simulate" the bass play these lines with palm muting



=1st part of the 1st verse is played by bass=  


E------------------------------------------------------------  |
B------------------------------------------------------------  |    
G--4-4----------66666666--99999999---------------------------  |
D--4-4---4-4----66666666--99999999---4--4-4------------------  |
A--2-2---4-4----44444444--77777777---4--4-4------------------  |
E--------2-2-------------------------2--2-2------------------  |
                                                               | Verse 1
                                                               |
E------------------------------------------------------------  |
B------------------------------------------------------------  |
G---------66666666--99999999---------------------------------  |
D--4-4----66666666--99999999---------------------------------  |
A--4-4----44444444--77777777---------------------------------  |
E--2-2-------------------------------------------------------  |






E------------------------------------------------------------  |
B------------------------------------------------------------  |
G-----------------(1)----------------------------------------  |  Chorus Part 1/4
D--66666666----4-0-2-----------------------------------------  |
A--66666666----4-0-2-----------------------------------------  | x3
E--44444444----2-0-0-----------------------------------------  |


E------------------------------------------------------------  |
B------------------------------------------------------------  |
G--99999999--1111111111111111--------------------------------  |  Chorus Part 2/4
D--99999999--1111111111111111--------------------------------  |
A--77777777--9-9-9-9-9-9-9-9---------------------------------  | 
E------------------------------------------------------------  |


E------------------------------------------------------------  |
B------------------------------------------------------------  |
G--------------------------2---------------------------------  |  Chorus Part 3/4
D--6-66-6---4-44-4----2-22-2-let ring------------------------  |
A--6-66-6---4-44-4----2-22-2---------------------------------  | 
E--4-44-4---2-22-2----0-00-----------------------------------  |
   .PM.     .PM.

E------------------------------------------------------------  |
B------------------------------------------------------------  |
G--44444444--------------------------------------------------  |  Chorus Part 4/4
D--44444444--------------------------4-----------------------  |
A--22222222-----a bit drumming-------4-----------------------  | 
E------------------------------------2-----------------------  |






E------------------------------------------------------------  |
B------------------------------------------------------------  |    
G--4-4----------66666666--99999999---------------------------  |
D--4-4---4-4----66666666--99999999---4--4-4------------------  |
A--2-2---4-4----44444444--77777777---4--4-4------------------  |
E--------2-2-------------------------2--2-2------------------  |
                                                               | Verse 2
                                                               |
E------------------------------------------------------------  |
B------------------------------------------------------------  |
G---------66666666--99999999---------------------------------  |
D--4-4----66666666--99999999---------------------------------  |
A--4-4----44444444--77777777---------------------------------  |
E--2-2-------------------------------------------------------  |



Chorus 


Solo ( I try to make this for a later version of the tab! )
  


E------------------------------------------------------------  |
B------------------------------------------------------------  |    
G--4-4----------66666666--99999999---------------------------  |
D--4-4---4-4----66666666--99999999---4--4-4------------------  |
A--2-2---4-4----44444444--77777777---4--4-4------------------  |
E--------2-2-------------------------2--2-2------------------  |
                                                               | 
                                                               |
E------------------------------------------------------------  |
B------------------------------------------------------------  |
G---------66666666--99999999---------------------------------  |
D--4-4----66666666--99999999---------------------------------  |
A--4-4----44444444--77777777---------------------------------  |
E--2-2-------------------------------------------------------  |
                                                               | Verse 3
^                                                              |
|                                                              |
play 2 times, second time with distortion                      |
                                                               |
                                                               |
                                                               |
E------------------------------------------------------------  |
B------------------------------------------------------------  |
G--------------------------2---------------------------------  |  
D--6-66-6---4-44-4----2-22-2-let ring------------------------  |
A--6-66-6---4-44-4----2-22-2---------------------------------  | 
E--4-44-4---2-22-2----0-00-----------------------------------  |
   .PM.     .PM.                                               |
                                                               |
E------------------------------------------------------------  |
B------------------------------------------------------------  |
G--44444444--------------------------------------------------  |  
D--44444444--------------------------4-----------------------  |
A--22222222-----a bit drumming-------4-----------------------  | 
E------------------------------------2-----------------------  |




E------------------------------------------------------------  |
B------------------------------------------------------------  |
G--44444444------------66666666--22222222--44444444----------  |
D--44444444--44444444--66666666--22222222--44444444----------  |
A--22222222--44444444--44444444--22222222--22222222----------  |
E------------22222222----------------------------------------  |
                                                               |
E------------------------------------------------------------  |
B------------------------------------------------------------  |
G--44444444----------------------44444444--------------------  |
D--44444444--44444444--22222222--44444444--------------------  |
A--22222222--44444444--22222222--22222222--------------------  |
E------------22222222--00000000------------------------------  |
                                                               |
E------------------------------------------------------------  |
B------------------------------------------------------------  |
G--44444444------------66666666--22222222--44444444----------  |
D--44444444--44444444--66666666--22222222--44444444----------  |Outro
A--22222222--44444444--44444444--22222222--22222222----------  |
E------------22222222----------------------------------------  |
                                 ...PM...                      |
E------------------------------------------------------------  |
B------------------------------------------------------------  |
G--44444444----------------------44444444--------------------  |
D--44444444--44444444--22222222--44444444--------------------  |
A--22222222--44444444--22222222--22222222--------------------  |
E------------22222222--00000000------------------------------  |
                                                               |
E------------------------------------------------------------  |
B------------------------------------------------------------  |
G--44444444--------------------11//13------------------------  |
D--44444444--44444444------6---x---x-------------------------  |
A--22222222--44444444------6---9-//11------------------------  |
E------------22222222------4---------------------------------  |   


| /  slide up
| x  Mute note
===============================================================================