Die Aerzte - Junge Text Guitar Tab

Learn song with the online tabulature player
Song: Junge
Band: Die Ärzte
Album: Jazz ist Anders
Tab By: Maximilian S.
Tuning: Standard


#################################################INTRO:

Guitar 1: (Clean)
E||-------------------2--------|----------------------------|
B||-------2--------------2-----|----------------------------|
G||----------------------------|--------------3/4--3---1----|
D||----------4-----------------|-------8--4-----------------|
A||-----4-----------4----------|-----6----------------------|
E||--2-----------2-------------|--4-------------------------|

Guitar 2: (Clean)
E||--2--2-2--2-2--2--2-2--2-2--|--4--4-4--4-4--4--4-4--4-4--|
B||--2--2-2--2-2--2--2-2--2-2--|--4--4-4--4-4--4--4-4--4-4--|
G||--3--3-3--3-3--3--3-3--3-3--|--5--5-5--5-5--5--5-5--5-5--|
D||--4--4-4--4-4--4--4-4--4-4--|--6--6-6--6-6--6--6-6--6-6--|
A||--4--4-4--4-4--4--4-4--4-4--|--6--6-6--6-6--6--6-6--6-6--|
E||--2--2-2--2-2--2--2-2--2-2--|--4--4-4--4-4--4--4-4--4-4--|

Guitar 3: (Overdrive)
E||----------------------------|----------------------------|
B||----------------------------|----------------------------|
G||----------------------------|----------------------------|
D||----------------------------|----------------------------|
A||----------------------------|----------------------------|
E||----------------------------|----------------------------|

_____________________________________________________________

Guitar 1: (Clean)
-------------------------------|----------------------------|
-------2-----------1-----------|-------2-----------1--------|
----------3-----------3--------|----------3-----------3-----|
-----3-----------3-------------|-----3-----------3----------|
--1-----------1----------------|--1-----------1-------------|
-------------------------------|----------------------------|

Guitar 2: (Clean)
--1--1-1--1-1--1--1-1--1-1-----|--1--1-1--1-1--1--1-1--1-1--|
--2--2-2--2-2--2--2-2--2-2-----|--2--2-2--2-2--2--2-2--2-2--|
--3--3-3--3-3--3--3-3--3-3-----|--3--3-3--3-3--3--3-3--3-3--|
--3--3-3--3-3--3--3-3--3-3-----|--3--3-3--3-3--3--3-3--3-3--|
--1--1-1--1-1--1--1-1--1-1-----|--1--1-1--1-1--1--1-1--1-1--|
-------------------------------|----------------------------|

Guitar 3: (Overdrive)
-------------------------------|----------------------------|
-------------------------------|----------9h11--9-----------|
-------------------------------|--------------------10------|
-------------------------------|-------------------------11-|
-------------------------------|----------------------------|
-------------------------------|----------------------------|

_____________________________________________________________

Guitar 1: (Clean)
-------------------2-----------|----------------------------|
-------2--------------2--------|----------------------------|
-------------------------------|--------------3/4--3---1----|
----------4--------------------|-------8--4-----------------|
-----4-----------4-------------|-----6----------------------|
--2-----------2----------------|--4-------------------------|

Guitar 2: (Clean)
--2--2-2--2-2--2--2-2--2-2-----|--4--4-4--4-4--4--4-4--4-4--|
--2--2-2--2-2--2--2-2--2-2-----|--4--4-4--4-4--4--4-4--4-4--|
--3--3-3--3-3--3--3-3--3-3-----|--5--5-5--5-5--5--5-5--5-5--|
--4--4-4--4-4--4--4-4--4-4-----|--6--6-6--6-6--6--6-6--6-6--|
--4--4-4--4-4--4--4-4--4-4-----|--6--6-6--6-6--6--6-6--6-6--|
--2--2-2--2-2--2--2-2--2-2-----|--4--4-4--4-4--4--4-4--4-4--|

Guitar 3: (Overdrive)
-------------------------------|----------------------------|
-------------------------------|----------------------------|
-------------------------------|----------------------------|
-------------------13----15----|-16--------------15h16p15---|
-------------------------------|----------------------------|
-------------------------------|----------------------------|

_____________________________________________________________

Guitar 1: (Clean)
-------------------------------|----------------------------|
-------2-----------1-----------|-------2-----------1--------|
----------3-----------3--------|----------3-----------3-----|
-----3-----------3-------------|-----3-----------3----------|
--1-----------1----------------|--1-----------1-------------|
-------------------------------|----------------------------|

Guitar 2: (Clean)
--1--1-1--1-1--1--1-1--1-1-----|--1--1-1--1-1--1--1-1--1-1--|
--2--2-2--2-2--2--2-2--2-2-----|--2--2-2--2-2--2--2-2--2-2--|
--3--3-3--3-3--3--3-3--3-3-----|--3--3-3--3-3--3--3-3--3-3--|
--3--3-3--3-3--3--3-3--3-3-----|--3--3-3--3-3--3--3-3--3-3--|
--1--1-1--1-1--1--1-1--1-1-----|--1--1-1--1-1--1--1-1--1-1--|
-------------------------------|----------------------------|

Guitar 3: (Overdrive)
-------------------------------|----------------------------|
-------------------------------|----------9h11--9-----------|
-------------------------------|--------------------10------|
-------------------------------|-------------------------11-|
-------------------------------|----------------------------|
-------------------------------|----------------------------|

#################################################VERS:

Junge, warum hast du nichts gelernt ?

Guitar 1: (Clean)
E||-------------------2--------|----------------------------| 
B||-------2--------------2-----|----------------------------| 
G||----------------------------|--------------3/4--3---1----| 
D||----------4-----------------|-------8--4-----------------|
A||-----4-----------4----------|-----6----------------------|
E||--2-----------2-------------|--4-------------------------|

Guitar 2: (Clean)
E||--2--2-2--2-2--2--2-2--2-2--|--4--4-4--4-4--4--4-4--4-4--|
B||--2--2-2--2-2--2--2-2--2-2--|--4--4-4--4-4--4--4-4--4-4--|
G||--3--3-3--3-3--3--3-3--3-3--|--5--5-5--5-5--5--5-5--5-5--|
D||--4--4-4--4-4--4--4-4--4-4--|--6--6-6--6-6--6--6-6--6-6--|
A||--4--4-4--4-4--4--4-4--4-4--|--6--6-6--6-6--6--6-6--6-6--|
E||--2--2-2--2-2--2--2-2--2-2--|--4--4-4--4-4--4--4-4--4-4--|

Guitar 3: (Overdrive)
E||----------------------------|----------------------------|
B||----------------------------|------11---13---14----------|
G||----------------------------|----------------------------|
D||----------------------------|----------------------------|
A||----------------------------|----------------------------|
E||----------------------------|----------------------------|

_____________________________________________________________

Guitar 1: (Clean)
-------------------------------|----------------------------|
-------2-----------1-----------|-------2-----------1--------|
----------3-----------3--------|----------3-----------3-----|
-----3-----------3-------------|-----3-----------3----------|
--1-----------1----------------|--1-----------1-------------|
-------------------------------|----------------------------|

Guitar 2: (Clean)
--1--1-1--1-1--1--1-1--1-1-----|--1--1-1--1-1--1--1-1--1-1--|
--2--2-2--2-2--2--2-2--2-2-----|--2--2-2--2-2--2--2-2--2-2--|
--3--3-3--3-3--3--3-3--3-3-----|--3--3-3--3-3--3--3-3--3-3--|
--3--3-3--3-3--3--3-3--3-3-----|--3--3-3--3-3--3--3-3--3-3--|
--1--1-1--1-1--1--1-1--1-1-----|--1--1-1--1-1--1--1-1--1-1--|
-------------------------------|----------------------------|

Guitar 3: (Overdrive)
-------------------------------|----------------------------|
-------------------------------|----------------------------|
-------------------------------|----------------------------|
-------------------------------|----------------------------|
-------------------------------|----------------------------|
-------------------------------|----------------------------|

_____________________________________________________________

Guck dir den Dieter an, der hat sogar ein Auto...

Guitar 1: (Clean)
-------------------2-----------|----------------------------|  
-------2--------------2--------|----------------------------| 
-------------------------------|--------------3/4--3---1----|
----------4--------------------|-------8--4-----------------|
-----4-----------4-------------|-----6----------------------|
--2-----------2----------------|--4-------------------------|

Guitar 2: (Clean)
--2--2-2--2-2--2--2-2--2-2-----|--4--4-4--4-4--4--4-4--4-4--|
--2--2-2--2-2--2--2-2--2-2-----|--4--4-4--4-4--4--4-4--4-4--|
--3--3-3--3-3--3--3-3--3-3-----|--5--5-5--5-5--5--5-5--5-5--|
--4--4-4--4-4--4--4-4--4-4-----|--6--6-6--6-6--6--6-6--6-6--|
--4--4-4--4-4--4--4-4--4-4-----|--6--6-6--6-6--6--6-6--6-6--|
--2--2-2--2-2--2--2-2--2-2-----|--4--4-4--4-4--4--4-4--4-4--|

Guitar 3: (Overdrive)
-------------------------------|----------------------------|
-------------------------------|----------------------------|
-------------------------------|----------------------------|
-------------------------------|----------------------------|
-------------------------------|----------------------------|
-------------------------------|----------------------------|

_____________________________________________________________

Guitar 1: (Clean)
-------------------------------|----------------------------|
-------2-----------1-----------|-------2-----------1--------|
----------3-----------3--------|----------3-----------3-----|
-----3-----------3-------------|-----3-----------3----------|
--1-----------1----------------|--1-----------1-------------|
-------------------------------|----------------------------|

Guitar 2: (Clean)
--1--1-1--1-1--1--1-1--1-1-----|--1--1-1--1-1--1--1-1--1-1--|
--2--2-2--2-2--2--2-2--2-2-----|--2--2-2--2-2--2--2-2--2-2--|
--3--3-3--3-3--3--3-3--3-3-----|--3--3-3--3-3--3--3-3--3-3--|
--3--3-3--3-3--3--3-3--3-3-----|--3--3-3--3-3--3--3-3--3-3--|
--1--1-1--1-1--1--1-1--1-1-----|--1--1-1--1-1--1--1-1--1-1--|
-------------------------------|----------------------------|

Guitar 3: (Overdrive)
-------------------------------|----------------------------|
-------------------------------|-----9/11-------------------|
-------------------------------|----------------------------|
-------------------------------|----------------------------|
-------------------------------|----------------------------|
-------------------------------|----------------------------|

_____________________________________________________________

Warum gehst du nicht zu Onkel Werner in die Werkstatt...

Guitar 1: (Clean)
-------------------2-----------|----------------------------|  
-------2--------------2--------|----------------------------| 
-------------------------------|--------------3/4--3---1----|
----------4--------------------|-------8--4-----------------|
-----4-----------4-------------|-----6----------------------|
--2-----------2----------------|--4-------------------------|

Guitar 2: (Clean)
--2--2-2--2-2--2--2-2--2-2-----|--4--4-4--4-4--4--4-4--4-4--|
--2--2-2--2-2--2--2-2--2-2-----|--4--4-4--4-4--4--4-4--4-4--|
--3--3-3--3-3--3--3-3--3-3-----|--5--5-5--5-5--5--5-5--5-5--|
--4--4-4--4-4--4--4-4--4-4-----|--6--6-6--6-6--6--6-6--6-6--|
--4--4-4--4-4--4--4-4--4-4-----|--6--6-6--6-6--6--6-6--6-6--|
--2--2-2--2-2--2--2-2--2-2-----|--4--4-4--4-4--4--4-4--4-4--|

Guitar 3: (Overdrive)
-------------------------------|----------------------------|
-------------------------------|----------------------------|
-------------------------------|----------------------------|
-------------------------------|----------------------------|
-------------------------------|----------------------------|
-------------------------------|----------------------------|

___________________________________________________________

Der gibt die ne Festeinstellung wenn du ihn darum bittest.

Guitar 1: (Clean)
-------------------------------|----------------------------| 
-------2-----------1-----------|-------2-----------1--------|
----------3-----------3--------|----------3-----------3-----|
-----3-----------3-------------|-----3-----------3----------|
--1-----------1----------------|--1-----------1-------------|
-------------------------------|----------------------------|

Guitar 2: (Clean)
--1--1-1--1-1--1--1-1--1-1-----|--1--1-1--1-1--1--1-1--1-1--|
--2--2-2--2-2--2--2-2--2-2-----|--2--2-2--2-2--2--2-2--2-2--|
--3--3-3--3-3--3--3-3--3-3-----|--3--3-3--3-3--3--3-3--3-3--|
--3--3-3--3-3--3--3-3--3-3-----|--3--3-3--3-3--3--3-3--3-3--|
--1--1-1--1-1--1--1-1--1-1-----|--1--1-1--1-1--1--1-1--1-1--|
-------------------------------|----------------------------|

Guitar 3: (Overdrive)
-------------------------------|----------------------------|
-------------------------------|------9h11p9----------------|
-------------------------------|----------------------------|
-------------------------------|----------------------------|
-------------------------------|----------------------------|
-------------------------------|----------------------------|

_____________________________________________________________

Junge...

Guitar 1: (Clean)
-------------------2-----------|----------------------------|
-------2--------------2--------|----------------------------| 
-------------------------------|--------------3/4--3---1----|
----------4--------------------|-------8--4-----------------|
-----4-----------4-------------|-----6----------------------|
--2-----------2----------------|--4-------------------------|

Guitar 2: (Clean)
--2--2-2--2-2--2--2-2--2-2-----|--4--4-4--4-4--4--4-4--4-4--|
--2--2-2--2-2--2--2-2--2-2-----|--4--4-4--4-4--4--4-4--4-4--|
--3--3-3--3-3--3--3-3--3-3-----|--5--5-5--5-5--5--5-5--5-5--|
--4--4-4--4-4--4--4-4--4-4-----|--6--6-6--6-6--6--6-6--6-6--|
--4--4-4--4-4--4--4-4--4-4-----|--6--6-6--6-6--6--6-6--6-6--|
--2--2-2--2-2--2--2-2--2-2-----|--4--4-4--4-4--4--4-4--4-4--|

Guitar 3: (Overdrive)
-------------------------------|----------------------------|
-------------------------------|-------------0--------------|
-------------------------------|----------------------------|
-------------------------------|----------------------------|
-------------------------------|----------------------------|
-------------------------------|----------------------------|


#################################################CHORUS:

Und wie du wieder aussiehst, Löcher in der Hose und ständig dieser Lärm
(Was solln die Nachbarn sagen?)
Und dann noch deine Haare, da fehlen mir die Worte
Musst du die denn färben?
(Was solln die Nachbarn sagen?)
Wie kommst du nach Hause, wir wissen nicht mehr weiter

Guitar 1: (Overdrive)                
E||-------------------------------|----------------------------------|
B||-------------------------------|----------------------------------|
G||-------------------------------|--8-8-8-8-8-8-8-8-8-8-8-8-8-8-8-8-|
D||-4-4-4-4-4-4-4-4-4-4-4-4-4-4---|--8-8-8-8-8-8-8-8-8-8-8-8-8-8-8-8-|
A||-4-4-4-4-4-4-4-4-4-4-4-4-4-4---|--6-6-6-6-6-6-6-6-6-6-6-6-6-6-6-6-|
E||-2-2-2-2-2-2-2-2-2-2-2-2-2-2---|----------------------------------|

----------------------------------|----------------------------------|
---Guitar-2-Plays-RIFF-1-HERE-----|----------------------------------|
----------------------------------|--6-6-6-6-6-6-6-6-6-6-6-6-6-6-6-6-|
--8-8-8-8-8-8-8-8-8-8-8-8-8-8-8-8-|--6-6-6-6-6-6-6-6-6-6-6-6-6-6-6-6-|
--8-8-8-8-8-8-8-8-8-8-8-8-8-8-8-8-|--4-4-4-4-4-4-4-4-4-4-4-4-4-4-4-4-|
--6-6-6-6-6-6-6-6-6-6-6-6-6-6-6-6-|----------------------------------|
                                                                    
----------------------------------|----------------------------------|
----------------------------------|----------------------------------|
----------------------------------|--8-8-8-8-8-8-8-8-8-8-8-8-8-8-8-8-|
--4-4-4-4-4-4-4-4-4-4-4-4-4-4-4-4-|--8-8-8-8-8-8-8-8-8-8-8-8-8-8-8-8-|
--4-4-4-4-4-4-4-4-4-4-4-4-4-4-4-4-|--6-6-6-6-6-6-6-6-6-6-6-6-6-6-6-6-|
--2-2-2-2-2-2-2-2-2-2-2-2-2-2-2-2-|----------------------------------|
                                                                     
----------------------------------|----------------------------------|
----Guitar-2-Plays-RIFF-1-HERE----|----------------------------------|
----------------------------------|--6-6-6-6-6-6-6-6-6-6-6-6-6-6-6-6-|
--8-8-8-8-8-8-8-8-8-8-8-8-8-8-8-8-|--6-6-6-6-6-6-6-6-6-6-6-6-6-6-6-6-|
--8-8-8-8-8-8-8-8-8-8-8-8-8-8-8-8-|--4-4-4-4-4-4-4-4-4-4-4-4-4-4-4-4-|
--6-6-6-6-6-6-6-6-6-6-6-6-6-6-6-6-|----------------------------------|
                                                   
----------------------------------|----------------------------------|
----------------------------------|----------------------------------|
----------------------------------|--8-------------------------------|
--4-4-4-4-4-4-4-4-4-4-4-4-4-4-4-4-|--8-------------------------------|
--4-4-4-4-4-4-4-4-4-4-4-4-4-4-4-4-|--6-------------------------------|
--2-2-2-2-2-2-2-2-2-2-2-2-2-2-2-2-|----------------------------------|

:::::::::::::::::::::::::::RIFF 1:
Guitar 2: (Overdrive)
E||-------------------------------|
B||-------------------------------|
G||-3-3-3-3-3-3-5-5-5-5-6-6-6-6-6-|
D||-x-x-x-x-x-x-x-x-x-x-x-x-x-6-6-|
A||-1-1-1-1-1-1-3-3-3-3-4-4-4-4-4-|
E||-------------------------------|

#################################################VERS:

Junge, brich deiner Mutter nicht das Herz...

Guitar 1: (Clean)
E||-------------------2--------|----------------------------| 
B||-------2--------------2-----|----------------------------| 
G||----------------------------|--------------3/4--3---1----| 
D||----------4-----------------|-------8--4-----------------|
A||-----4-----------4----------|-----6----------------------|
E||--2-----------2-------------|--4-------------------------|

Guitar 2: (Clean)
E||--2--2-2--2-2--2--2-2--2-2--|--4--4-4--4-4--4--4-4--4-4--|
B||--2--2-2--2-2--2--2-2--2-2--|--4--4-4--4-4--4--4-4--4-4--|
G||--3--3-3--3-3--3--3-3--3-3--|--5--5-5--5-5--5--5-5--5-5--|
D||--4--4-4--4-4--4--4-4--4-4--|--6--6-6--6-6--6--6-6--6-6--|
A||--4--4-4--4-4--4--4-4--4-4--|--6--6-6--6-6--6--6-6--6-6--|
E||--2--2-2--2-2--2--2-2--2-2--|--4--4-4--4-4--4--4-4--4-4--|

Guitar 3: (Overdrive)
E||----------------------------|----------------------------|
B||----------------------------|----------------------------|
G||----------------------------|----------------------------|
D||----------------------------|----------------------------|
A||----------------------------|----------------------------|
E||----------------------------|----------------------------|

_____________________________________________________________

Guitar 1: (Clean)
-------------------------------|----------------------------|
-------2-----------1-----------|-------2-----------1--------|
----------3-----------3--------|----------3-----------3-----|
-----3-----------3-------------|-----3-----------3----------|
--1-----------1----------------|--1-----------1-------------|
-------------------------------|----------------------------|

Guitar 2: (Clean)
--1--1-1--1-1--1--1-1--1-1-----|--1--1-1--1-1--1--1-1--1-1--|
--2--2-2--2-2--2--2-2--2-2-----|--2--2-2--2-2--2--2-2--2-2--|
--3--3-3--3-3--3--3-3--3-3-----|--3--3-3--3-3--3--3-3--3-3--|
--3--3-3--3-3--3--3-3--3-3-----|--3--3-3--3-3--3--3-3--3-3--|
--1--1-1--1-1--1--1-1--1-1-----|--1--1-1--1-1--1--1-1--1-1--|
-------------------------------|----------------------------|

Guitar 3: (Overdrive)
-------------------------------|----------------------------|
-----------------14---13---11--|----------------------------|
-------------------------------|--10--------11----13--------|
-------------------------------|----------------------------|
-------------------------------|----------------------------|
-------------------------------|----------------------------|

_____________________________________________________________

Es ist noch  nicht zu spät dich an der Uni einzuschreiben...

Guitar 1: (Clean)
-------------------2-----------|----------------------------| 
-------2--------------2--------|----------------------------|
-------------------------------|--------------3/4--3---1----|
----------4--------------------|-------8--4-----------------|
-----4-----------4-------------|-----6----------------------|
--2-----------2----------------|--4-------------------------|

Guitar 2: (Clean)
--2--2-2--2-2--2--2-2--2-2-----|--4--4-4--4-4--4--4-4--4-4--|
--2--2-2--2-2--2--2-2--2-2-----|--4--4-4--4-4--4--4-4--4-4--|
--3--3-3--3-3--3--3-3--3-3-----|--5--5-5--5-5--5--5-5--5-5--|
--4--4-4--4-4--4--4-4--4-4-----|--6--6-6--6-6--6--6-6--6-6--|
--4--4-4--4-4--4--4-4--4-4-----|--6--6-6--6-6--6--6-6--6-6--|
--2--2-2--2-2--2--2-2--2-2-----|--4--4-4--4-4--4--4-4--4-4--|

Guitar 3: (Overdrive)
-------------------------------|----------------------------|
-------------------------------|----------------------------|
-------------------------------|----------------------------|
-------------------------------|----------------------------|
-------------------------------|----------------------------|
-------------------------------|----------------------------|

_____________________________________________________________

Guitar 1: (Clean)
-------------------------------|----------------------------|
-------2-----------1-----------|-------2-----------1--------|
----------3-----------3--------|----------3-----------3-----|
-----3-----------3-------------|-----3-----------3----------|
--1-----------1----------------|--1-----------1-------------|
-------------------------------|----------------------------|

Guitar 2: (Clean)
--1--1-1--1-1--1--1-1--1-1-----|--1--1-1--1-1--1--1-1--1-1--|
--2--2-2--2-2--2--2-2--2-2-----|--2--2-2--2-2--2--2-2--2-2--|
--3--3-3--3-3--3--3-3--3-3-----|--3--3-3--3-3--3--3-3--3-3--|
--3--3-3--3-3--3--3-3--3-3-----|--3--3-3--3-3--3--3-3--3-3--|
--1--1-1--1-1--1--1-1--1-1-----|--1--1-1--1-1--1--1-1--1-1--|
-------------------------------|----------------------------|

Guitar 3: (Overdrive)
-------------------------------|----------------------------|
-------------------------------|----------------------------|
-------------------------------|---------6---5--------------|
-------------------------------|----------------------------|
-------------------------------|----------------------------|
-------------------------------|----------------------------|

_____________________________________________________________

Du hast dich doch früher so für Tiere interessiert, wäre das 
nichts für dich...

Guitar 1: (Clean)
-------------------2-----------|----------------------------| 
-------2--------------2--------|----------------------------| 
-------------------------------|--------------3/4--3---1----|
----------4--------------------|-------8--4-----------------|
-----4-----------4-------------|-----6----------------------|
--2-----------2----------------|--4-------------------------|

Guitar 2: (Clean)
--2--2-2--2-2--2--2-2--2-2-----|--4--4-4--4-4--4--4-4--4-4--|
--2--2-2--2-2--2--2-2--2-2-----|--4--4-4--4-4--4--4-4--4-4--|
--3--3-3--3-3--3--3-3--3-3-----|--5--5-5--5-5--5--5-5--5-5--|
--4--4-4--4-4--4--4-4--4-4-----|--6--6-6--6-6--6--6-6--6-6--|
--4--4-4--4-4--4--4-4--4-4-----|--6--6-6--6-6--6--6-6--6-6--|
--2--2-2--2-2--2--2-2--2-2-----|--4--4-4--4-4--4--4-4--4-4--|

Guitar 3: (Overdrive)
-------------------------------|----------------------------|
-------------------------------|----------------------------|
-------------------------------|----------------------------|
-------------------------------|----------------------------|
-------------------------------|----------------------------|
-------------------------------|----------------------------|

___________________________________________________________

...eine eigene Praxis

Guitar 1: (Clean)
-------------------------------|----------------------------| 
-------2-----------1-----------|-------2-----------1--------| 
----------3-----------3--------|----------3-----------3-----|
-----3-----------3-------------|-----3-----------3----------|
--1-----------1----------------|--1-----------1-------------|
-------------------------------|----------------------------|

Guitar 2: (Clean)
--1--1-1--1-1--1--1-1--1-1-----|--1--1-1--1-1--1--1-1--1-1--|
--2--2-2--2-2--2--2-2--2-2-----|--2--2-2--2-2--2--2-2--2-2--|
--3--3-3--3-3--3--3-3--3-3-----|--3--3-3--3-3--3--3-3--3-3--|
--3--3-3--3-3--3--3-3--3-3-----|--3--3-3--3-3--3--3-3--3-3--|
--1--1-1--1-1--1--1-1--1-1-----|--1--1-1--1-1--1--1-1--1-1--|
-------------------------------|----------------------------|

Guitar 3: (Overdrive)
-------------------------------|----------------------------|
------------------14---13---11-|----------------------------|
-------------------------------|--10--11----13--------------|
-------------------------------|----------------------------|
-------------------------------|----------------------------|
-------------------------------|----------------------------|

_____________________________________________________________

Junge...

Guitar 1: (Clean)
-------------------2-----------|----------------------------|
-------2--------------2--------|----------------------------| 
-------------------------------|--------------3/4--3---1----|
----------4--------------------|-------8--4-----------------|
-----4-----------4-------------|-----6----------------------|
--2-----------2----------------|--4-------------------------|

Guitar 2: (Clean)
--2--2-2--2-2--2--2-2--2-2-----|--4--4-4--4-4--4--4-4--4-4--|
--2--2-2--2-2--2--2-2--2-2-----|--4--4-4--4-4--4--4-4--4-4--|
--3--3-3--3-3--3--3-3--3-3-----|--5--5-5--5-5--5--5-5--5-5--|
--4--4-4--4-4--4--4-4--4-4-----|--6--6-6--6-6--6--6-6--6-6--|
--4--4-4--4-4--4--4-4--4-4-----|--6--6-6--6-6--6--6-6--6-6--|
--2--2-2--2-2--2--2-2--2-2-----|--4--4-4--4-4--4--4-4--4-4--|

Guitar 3: (Overdrive)
-------------------------------|----------------------------|
-------------------------------|----------------------------|
-------------------------------|----------------------------|
---------------14r-------------|----------------------------|
-------------------------------|----------------------------|
-------------------------------|----------------------------|

#################################################CHORUS:

Und wie du wieder aussiehst, Löcher in der Nase und ständig dieser Lärm
(Was solln die Nachbarn sagen?)
Elektrische Gitarren und immer diese Texte
Das will doch keiner hörn
(Was solln die Nachbarn sagen?)
Wie kommst du nach Hause, soviel schlechter Umgang
Wir werden dich enterben
(Was soll das Finanzamt sagen?)
Wo soll das alles enden, wir machen uns doch Sorgen

Guitar 1: (Overdrive)
E||-------------------------------|----------------------------------|
B||-------------------------------|----------------------------------|
G||-------------------------------|--8-8-8-8-8-8-8-8-8-8-8-8-8-8-8-8-|
D||-4-4-4-4-4-4-4-4-4-4-4-4-4-4---|--8-8-8-8-8-8-8-8-8-8-8-8-8-8-8-8-|
A||-4-4-4-4-4-4-4-4-4-4-4-4-4-4---|--6-6-6-6-6-6-6-6-6-6-6-6-6-6-6-6-|
E||-2-2-2-2-2-2-2-2-2-2-2-2-2-2---|----------------------------------|

----------------------------------|----------------------------------|
----Guitar-2-Plays-RIFF-1-HERE----|----------------------------------|
----------------------------------|--6-6-6-6-6-6-6-6-6-6-6-6-6-6-6-6-|
--8-8-8-8-8-8-8-8-8-8-8-8-8-8-8-8-|--6-6-6-6-6-6-6-6-6-6-6-6-6-6-6-6-|
--8-8-8-8-8-8-8-8-8-8-8-8-8-8-8-8-|--4-4-4-4-4-4-4-4-4-4-4-4-4-4-4-4-|
--6-6-6-6-6-6-6-6-6-6-6-6-6-6-6-6-|----------------------------------|
                                                                   
----------------------------------|----------------------------------|
----------------------------------|----------------------------------|
----------------------------------|--8-8-8-8-8-8-8-8-8-8-8-8-8-8-8-8-|
--4-4-4-4-4-4-4-4-4-4-4-4-4-4-4-4-|--8-8-8-8-8-8-8-8-8-8-8-8-8-8-8-8-|
--4-4-4-4-4-4-4-4-4-4-4-4-4-4-4-4-|--6-6-6-6-6-6-6-6-6-6-6-6-6-6-6-6-|
--2-2-2-2-2-2-2-2-2-2-2-2-2-2-2-2-|----------------------------------|
                                                                   
----------------------------------|----------------------------------|
---Guitar-2-Plays-RIFF-1-HERE-----|----------------------------------|
----------------------------------|--6-6-6-6-6-6-6-6-6-6-6-6-6-6-6-6-|
--8-8-8-8-8-8-8-8-8-8-8-8-8-8-8-8-|--6-6-6-6-6-6-6-6-6-6-6-6-6-6-6-6-|
--8-8-8-8-8-8-8-8-8-8-8-8-8-8-8-8-|--4-4-4-4-4-4-4-4-4-4-4-4-4-4-4-4-|
--6-6-6-6-6-6-6-6-6-6-6-6-6-6-6-6-|----------------------------------|
                                                                     
----------------------------------|----------------------------------|
----------------------------------|----------------------------------|
----------------------------------|--8-8-8-8-8-8-8-8-8-8-8-8-8-8-8-8-|
--4-4-4-4-4-4-4-4-4-4-4-4-4-4-4-4-|--8-8-8-8-8-8-8-8-8-8-8-8-8-8-8-8-|
--4-4-4-4-4-4-4-4-4-4-4-4-4-4-4-4-|--6-6-6-6-6-6-6-6-6-6-6-6-6-6-6-6-|
--2-2-2-2-2-2-2-2-2-2-2-2-2-2-2-2-|----------------------------------|
                                                                    
----------------------------------|----------------------------------|
---Guitar-2-Plays-RIFF-1-HERE-----|----------------------------------|
----------------------------------|--6-6-6-6-6-6-6-6-6-6-6-6-6-6-6-6-|
--8-8-8-8-8-8-8-8-8-8-8-8-8-8-8-8-|--6-6-6-6-6-6-6-6-6-6-6-6-6-6-6-6-|
--8-8-8-8-8-8-8-8-8-8-8-8-8-8-8-8-|--4-4-4-4-4-4-4-4-4-4-4-4-4-4-4-4-|
--6-6-6-6-6-6-6-6-6-6-6-6-6-6-6-6-|----------------------------------|
                                                     
----------------------------------|----------------------------------|
----------------------------------|----------------------------------|
----------------------------------|--8-------------------------------|
--4-4-4-4-4-4-4-4-4-4-4-4-4-4-4-4-|--8-------------------------------|
--4-4-4-4-4-4-4-4-4-4-4-4-4-4-4-4-|--6-------------------------------|
--2-2-2-2-2-2-2-2-2-2-2-2-2-2-2-2-|----------------------------------|

:::::::::::::::::::::::::::RIFF 1:
Guitar 2: (Overdrive)
E||-------------------------------|
B||-------------------------------|
G||-3-3-3-3-3-3-5-5-5-5-6-6-6-6-6-|
D||-x-x-x-x-x-x-x-x-x-x-x-x-x-6-6-|
A||-1-1-1-1-1-1-3-3-3-3-4-4-4-4-4-|
E||-------------------------------|

#################################################Bridge:

Und du warst so ein süßes Kind.
Und du warst so ein süßes Kind.
Und du warst so ein süßes Kind.
Du warst so süß.

Guitar 1: (Overdrive/Palm Muted)
E||----------------------------------|----------------------------------|
B||----------------------------------|----------------------------------|
G||----------------------------------|----------------------------------|
D||----------------------------------|----------------------------------|
A||--9-9-9-9-9-9-9-9-9-9-9-9-9-9-9-9-|--9-9-9-9-9-9-9-9-9-9-9-9-9-9-9-9-|
E||----------------------------------|----------------------------------|

Guitar 2: (Clean/Tremolo picking)
E||--13----------------11-----13--14-|-13----------------11-----13--14--|
B||----------------------------------|----------------------------------|
G||----------------------------------|----------------------------------|
D||----------------------------------|----------------------------------|
A||----------------------------------|----------------------------------|
E||----------------------------------|----------------------------------|

_________________________________________________________________________
   
Guitar 1: (Overdrive/Palm Muted)                                                                
----------------------------------|----------------------------------|
----------------------------------|----------------------------------|
----------------------------------|----------------------------------|
----------------------------------|----------------------------------|
--8-8-8-8-8-8-8-8-8-8-8-8-8-8-8-8-|--8-8-8-8-8-8-8-8-8-8-8-8-6-6-6-6-|
----------------------------------|----------------------------------|

Guitar 2: (Clean/Tremolo picking)
--18---------------18-16----18/19-|--18----------------------16------|
--18---------------18-16----18/19-|--18----------------------16------|
----------------------------------|----------------------------------|
----------------------------------|----------------------------------|
----------------------------------|----------------------------------|
----------------------------------|----------------------------------|

_____________________________________________________________________
 
Guitar 1: (Overdrive/Palm Muted)                                                                      
----------------------------------|----------------------------------|
----------------------------------|----------------------------------|
----------------------------------|----------------------------------|
----------------------------------|----------------------------------|
--4-4-4-4-4-4-4-4-4-4-4-4-4-4-4-4-|--6-6-6-6-6-6-6-6-6-6-6-6-6-6-6-6-|
----------------------------------|----------------------------------|
    
Guitar 2: (Clean/Tremolo picking)
--14-----18------------16---18-19-|--18---------------16-16----18-19-|
--14-----18------------16---18-19-|--18---------------16-16----18-19-|
----------------------------------|----------------------------------|
----------------------------------|----------------------------------|
----------------------------------|----------------------------------|
----------------------------------|----------------------------------|

_____________________________________________________________________

Guitar 1: (Overdrive/Palm Muted)                                                      
----------------------------------|----------------------------------|
----------------------------------|----------------------------------|
----------------------------------|--10------------------------------|
----------------------------------|--10------------------------------|
--8-8-8-8-8-8-8-8-8-8-8-8-6-6-6-6-|--8-------------------------------|
----------------------------------|----------------------------------|

Guitar 2: (Clean/Tremolo picking)
--18----------------------16------|--18------------------------------|
--18----------------------16------|--18------------------------------|
----------------------------------|----------------------------------|
----------------------------------|----------------------------------|
----------------------------------|----------------------------------|
----------------------------------|----------------------------------|

#################################################CHORUS:

Und immer deine Freunde, ihr nehmt doch alle Drogen
Und ständig dieser Lärm
(Was solln die Nachbarn sagen?)
Denk an deine Zukunft, denk an deine Eltern
Willst du dass wir sterben?

Guitar 1: (Overdrive)
E||-------------------------------|----------------------------------|
B||-------------------------------|----------------------------------|
G||-------------------------------|--8-8-8-8-8-8-8-8-8-8-8-8-8-8-8-8-|
D||-4-4-4-4-4-4-4-4-4-4-4-4-4-4---|--8-8-8-8-8-8-8-8-8-8-8-8-8-8-8-8-|
A||-4-4-4-4-4-4-4-4-4-4-4-4-4-4---|--6-6-6-6-6-6-6-6-6-6-6-6-6-6-6-6-|
E||-2-2-2-2-2-2-2-2-2-2-2-2-2-2---|----------------------------------|

----------------------------------|----------------------------------|
---Guitar-2-Plays-RIFF-1-HERE-----|----------------------------------|
----------------------------------|--6-6-6-6-6-6-6-6-6-6-6-6-6-6-6-6-|
--8-8-8-8-8-8-8-8-8-8-8-8-8-8-8-8-|--6-6-6-6-6-6-6-6-6-6-6-6-6-6-6-6-|
--8-8-8-8-8-8-8-8-8-8-8-8-8-8-8-8-|--4-4-4-4-4-4-4-4-4-4-4-4-4-4-4-4-|
--6-6-6-6-6-6-6-6-6-6-6-6-6-6-6-6-|----------------------------------|
                                                                    
----------------------------------|----------------------------------|
----------------------------------|----------------------------------|
----------------------------------|--8-------------------------------|
--4-4-4-4-4-4-4-4-4-4-4-4-4-4-4-4-|--8-------------------------------|
--4-4-4-4-4-4-4-4-4-4-4-4-4-4-4-4-|--6-------------------------------|
--2-2-2-2-2-2-2-2-2-2-2-2-2-2-2-2-|----------------------------------|

:::::::::::::::::::::::::::RIFF 1:
Guitar 2: (Overdrive)
E||-------------------------------|
B||-------------------------------|
G||-3-3-3-3-3-3-5-5-5-5-6-6-6-6-6-|
D||-x-x-x-x-x-x-x-x-x-x-x-x-x-6-6-|
A||-1-1-1-1-1-1-3-3-3-3-4-4-4-4-4-|
E||-------------------------------|