Die Aerzte - Lasse Reden Text Guitar Tab

Learn song with the online tabulature player
Intro:
e|---|
B|---|
G|-4~|
D|-4~|<-listen to the song for the right guitar effect
A|-2~|
E|---|

Strophe:
e|--------------------|
B|--------------------|
G|-(4)----------------|
D|-(4)--(2)--(4)------|
A|- 2 --(2)--(4)------|
E|------ 0 -- 2 ------|

Chorous:
e|----------|
B|----------|
G|-4--------|
D|-4--2-6-4~|
A|-2--2-6-4~|
E|----0-4-2~|

Interlude:
e|---|
B|---|
G|-4~|<-again with this effect
D|-4~|
A|-2~|
E|---|

and after the second time of the chorous:

Bridge:
e|------------|--------------|
B|------------|--------------|
G|------------|--------------|
D|-6-5-4-3-2-2|-44-44-444444-|
A|-6-5-4-3-2-2|-44-44-444444-|
E|-4-3-2-1-0-0|-22-22-222222-|

...
listen to the song for the right order!!!

I'm sure it's a 100% right... but just give a comment if there's something to correct! 
rate pls... ;)