Die Aerzte - Rebell Text Guitar Tab

Learn song with the online tabulature player
heres a cool solo for even cooler song.
I'm don't think it's 100% correct but it
sounds good. and there's not many other tabs
for this solo.


(..meine freie Entscheidung)

E-(0)--3-3p1p0--------------|
B-------------3p1p0---------|
G------------------2p0h2----|  F~~
D---------------------------|
A---------------------------|
E---------------------------|

E---------------------------|
B---------------------------|
G--------0------------------|  Am~~
D-0-0h2h3---3--2h3p2p0--2---|
A---------------------------|
E---------------------------|

E---------------------------|
B---------------------------|
G---------------------------|  F~~
D---------------------------|
A-0-0-2-2h3p2h3~-2h3p2p0----|
E-----------------------3-1-|

E-1h3p1p0-------------------|
B----------1h3p1p0----------|
G--------------------0h2p0--|  Am~~
D---------------------------|
A---------------------------|
E---------------------------|


Tabbed by: dustinmasafret@msn.com