Die Aerzte - Schlaflied Text Guitar Tab

Learn song with the online tabulature player
Guitar tab:

      C           Em            Am           Em           
e---|----------------------------------------------------|
B---|-------1------------0------------1------------------|
G---|-----0---0--------0---0--------2---2----------0-----|
D---|---2-------2----2-------2----2-------2------2---2---|
A---|-3------------2------------0--------------2-------2-|
E---|----------------------------------------0-----------|

      Am           Em           G            G
e---|----------------------------------------------------|
B---|-------1--------------------------------------------|
G---|-----2---2----------0------------0------------------|
D---|---2-------2------2---2--------0---0--------0-------|
A---|-0--------------2-------2----2-------2----2---------|
E---|--------------0------------3------------3-----3-5-7-|



Verse 1:
    C        Em         Am    Em     
Schlaf mein Kindchen, schlafe ein
     Am           Em       G
Die Nacht, die schaut zum Fenster rein
     C     Em      Am        Em
Der runde Mond der hat dich gerne
Am      Em       G
Und es leuchten dir die Sterne
    C         Em       Am     Em
schlaf mein kleines, traeume suess
 Am       Em     G
bald bist du im Paradies

Verse 2:
Denn gleich oeffnet sich die Tuer
und ein Monster kommt zu dir
mit seinen elf Augen schaut es dich an
und schleicht sich an dein Bettchen ran
du liegst still da, bewegst dich nicht
das Monster zerkratzt dir dein Gesicht

Verse 3:
Seine Finger sind lang und duenn
wehr dich nicht, 's hat keinen Sinn
und es kichert wie verrueckt
als es deinen Hals zudrueckt     
du schreist, doch du bist allein zu Haus
das Monster sticht dir die Augen aus

Verse 4:
Dann bist du still, und das ist gut
es beisst dir in den Hals und trinkt dein Blut
ohne Blut bist du bleich wie Kreide
dann frisst es deine Eingeweide
dein kleines Bettchen vom Blut ganz rot
die Sonne geht auf und du bist tot...

Verse 5:
Schlaf mein Kindchen, schlaf jetzt ein
am Himmel stehn die Sternelein
Schlaf mein Kindchen, schlafe schnell
Dein Bettchen ist ein Karussell
Schlaf mein Kindchen, schlaf jetzt ein
Sonst kann das Monster nicht hinein!