Die Aerzte - Teenager Liebe Text Guitar Tab

Learn song with the online tabulature player
TEENAGER LIEBE INTRO

  C                       Am
e:-----------------------:----------------------:
B:-----1--3--0--1---3--0-:----1--3--0--1---3--0-:
G:----------------0------:---------------0------:
D:-----------------------:----------------------:
A:--3--------------------:-0--------------------:
E:-----------------------:----------------------:

 F                       G
e:----------------------:------------------------:
B:----1--3--0--1---3--0-:----0--1--1--3--0--1--3-:
G:---------------0------:----0--0--0--0--0--0--0-:
D:----------------------:------------------------:
A:----------------------:------------------------:
E:-1--------------------:-3----------------------:




Enjoy it! Please rate it! Have fun!