Die Orsons - Jetzt Text Guitar Tab

Learn song with the online tabulature player
E|---------------------------------|------------------------------|-3----------------3-----------|
B|-0---1---------------1-----------|-0----------------0-----------|------0---------------0-------|
G|---------0---------------0-------|------0---------------0-------|----------0---------------0---|
D|-------------2---------------2---|----------2---------------2---|-2----2---2---2---2---2---2---|
A|-3---------------3---------------|-3----3---3---3---3---3---3---|------------------------------|
E|---------------------------------|------------------------------|------------------------------|


E|-0----------------0-----------|-0----------------0-----------|-0----------------0-----------|
B|------3---------------3-------|------1---------------1-------|------1---------------1-------|
G|----------0---------------0---|----------2---------------2---|----------2---------------2---|
D|-2----2---2---2---------------|-3------------3---------------|-3------------3---------------|
A|------------------------------|------------------------------|------------------------------|
E|------------------------------|------------------------------|------------------------------|


E|-0----------------0-----------|-1----------------1-----------|
B|------1---------------1-------|------1---------------1-------|
G|----------1---------------1---|----------1---------------1---|
D|-3------------3---------------|-3------------3---------------|
A|------------------------------|------------------------------|
E|------------------------------|------------------------------|