Dierks Bentley - Long Trip Alone Text Guitar Tab

Learn song with the online tabulature player
Long Trip Alone Intro/verse. The chords are already posted. They are 100 % and go along 
this intro.

   G                    Bm
e--3-----3--0-0--0-0----2-x--2--x---2--2-2--2----------------------|
B--3-----3--3-3--3-3----3-x--3--x---3--3-3--3----------------------|
G--0h2---2--4-4--2-4----4-x--4--x---4--4-4--4----------------------|
D--0-----0--0-0--0-0----4-x--4--x---4--4-4--4----------------------|
A--0-----0--0-0--0-0----2-x--2--x---2--2-2--2----------------------|
E--3-----3--3-3--3-3-----------------------------------------------|

   G                     Bm
e--3-----3--0-0--0-0----2-x--2--x---2--2-2--2----------------------|
B--3-----3--3-3--3-3----3-x--3--x---3--3-3--3----------------------|
G--0h2---2--4-4--2-4----4-x--4--x---4--4-4--4----------------------|
D--0-----0--0-0--0-0----4-x--4--x---4--4-4--4----------------------|
A--0-----0--0-0--0-0----2-x--2--x---2--2-2--2----------------------|
E--3-----3--3-3--3-3-----------------------------------------------|